Song name
# A B C D E F G H I J K L M N O P Q R S T U V W X Y Z

Bernard Fanning - Down To The River tab

Help us improve GuitareTab! Take a short survey!
Artist: Bernard Fanning
Song: Down the River
Album: Tea & Sympathy

e|------------0--------3---------0-----------|
B|---------1-----1---------1--------1--------|
G|-----0------------0---------0--------0-----|
D|-------------------------------------------|
A|--3----------------------------------------|
E|-------------------------------------------|

e|----------------0----------------------1--0-----|
B|----------1--------1-------------1-----------1--|
G|-------0-----0--------0-------0-----0-----------|
D|--1\2--------------------2\3--------------------|
A|------------------------------------------------|
E|------------------------------------------------|

repeat that as many times as u want, i havn't figured out the next bit yet
ne comments will be good, but i think i've got this 100% right

mongoose_018@hotmail.com
Related for Down To The River tab