Song name
# A B C D E F G H I J K L M N O P Q R S T U V W X Y Z

Bernard Lavilliers - Angola tab

Standard tuning with CAPO on the 3rd fret:

-------------------------------------|
-------0-------3-------1-------1-----|
-------0-------0-------2-------0-----|
-----2-------0-------2-------2-------|
-------------------0-----0-3-----3---|
---0-----0-3-----3-------------------|

-------------------------------------|
-------0-------3-------1-------1-----|
-------0-------0-------2-------2-----|
-----2-------0-------1-------1---1---|
---------------------------2---------|
---0-----0-3-----3-2-----2-----------|

-------------------------------------|
-------0-------3-------1-------1-----|
-------0-------0-------2-------0-----|
-----2-------0-------2-------2-------|
-------------------0-----0-3-----3---|
---0-----0-3-----3-------------------|


-------------------------------------|
-------0-------3-------1------3-3----|
-------0-------0-------2------2-2----|
-----2-------0-------1---------------|
---------------------------2---------|
---0-----0-3-----3-2-----2-----------|

-------o-----------------------------|
------c-u----------------------------|
---------r---------------------------|
----n-----a--------------------------|
---o-------g-------------------------|
--b---------e------------------------|

pour tous commentaires ou questions
n'hésitez pas à me joindre:
 Bloodyknight30@wanadoo.fr
Tap to rate this tab
 
# A B C D E F G H I J K L M N O P Q R S T U V W X Y Z