Guitaretab - guitar tabs
Song name
# A B C D E F G H I J K L M N O P Q R S T U V W X Y Z

Bertie Higgins - Casablanca tab

Emarosa
Casablanca Tab
Album: This IS Your Way Out

drop C tab..
Intro:
guitar 1:
|--------------------------------------------------------------------|
|-----------------------------------5~--8~--13~-------5~--15~--13~---|
|-----------------------------------x---x---xx--------x---xx---xx----|
|-22222222-22222222--2--2--2--2--2--2~--5~--10~-------2~--12~--10~---|
|-22222222-22222222--2--2--2--2--2-----------------------------------|
|-22222222-22222222--2--2--2--2--2-----------------------------------|

guitar 2:
|-------------------------------------------------------|
|-------------------------------------------------------|
|-1212121212121212--1212121212121212--1212121212121212--|
|-1414141414141414--1414141414141414--1414141414141414--|
|-------------------------------------------------------|
|-------------------------------------------------------|


then:
guitar 1:
|---------------------------------------------------------|
|---------------------------------1515--------------------|
|-9999-1212-1717171717171717-9999-xxxx-1717171717171717---|
|-9999-1212-1717171717171717-9999-1212-1717171717171717---|
|-7777-1010-1515151515151515-7777------1515151515151515---|
|---------------------------------------------------------|

guitar 2:
|--------|
|--------|
|--------|
|---2~---| x4
|---2~---|
|---2~---|

then:                                  G1         G2      G1   G2      
|-------------------------------------|---------|--------|----|------|
|-------------------------------------|---------|--------|----|------|
|-99999999-55555555----------55555555-|-9/-9-9/-|-222222-|-9/-|------|
|-99999999-55555555-22222222-55555555-|-9/-9-9/-|-222222-|-9/-|--2---|
|-77777777-33333333-22222222-33333333-|-7/-7-7/-|-222222-|-7/-|--2---|
|-------------------22222222----------|---------|-222222-|----|--2---|
[ Tab from: http://www.guitaretab.com/b/bertie-higgins/56688.html ]
 G1     G2       G2  G1                         then:
|------|--------|---|---------------------------|-----------|
|------|--------|---|-------------1h3-0---------|-----------|
|-9-9/-|--------|---|-------------------0h2---0-|----4-4----|
|-9-9/-|-222222-|-2-|-2p0---4h5p2-----------2---|--2-----2--|
|-7-7/-|-222222-|-2-|-----2---------------------|-----------|
|------|-222222-|-2-|---------------------------|-----------|
                  .                                  x5[except 1st note]


then:    then:
|-------|------------------------------|
|-------|---------------1h3------------|
|-4---5-|---------0---------4----------|
|---2---|-----0-----4-2-------5h7---5--|
|-------|-2-4---2-----------------7----|
|-------|------------------------------|
   x6

then:
G2
|-----------------------------------------------------------------------
|-----------------------------------------------------------------------
|-----------------------------------------------------------------------
|-7-7-7-7-7-7-7-7--7-7-7-7-7-7-7-7--1010101010101010-1010101010101010---
|-1212121212121212-1212121212121212-1515151515151515-1515151515151515---
|-----------------------------------------------------------------------
  . . . . . . . .  . . . . . . . .  . . . . . . . .  . . . . . . . .
continued...
|----------------|---------|
|----------------|---------|
|----------------|---------|
|-9-9-9--101010--|-9-9-9---|
|-141414-151515--|-141414--|
|----------------|---------|
  . . .   . . .    . . .
      x5

G1                                            x5
|-----------------------------------------|---------|
|-------------------11111111-11111111-000-|-111-000-|
|-22222222-22222222-----------------------|---------|
|-----------------------------------------|---------|
|-----------------------------------------|---------|
|-----------------------------------------|---------|

 ......... ........ ........ ........ ...   ... ...

then:
G1
|-33333333-33333333------------------------------|
|-------------------1/5/8-1/5/8/13----12--13-12--|
|------------------------------------------------|
|------------------------------------------------|
|------------------------------------------------|
|------------------------------------------------|

G2
|----------------------------------------------------|
|----------------------------------------------------|
|-99999999-99999999----------------------------------|
|-99999999-99999999----------------------------------|
|-77777777-77777777---3/7/10--3/7/10/15--14--15--14--|
|----------------------------------------------------|
to be continued...
Related for Casablanca tab
×
Casablanca