Song name
# A B C D E F G H I J K L M N O P Q R S T U V W X Y Z

Beseech - Gimmie Gimmie Gimmie tab

All rights to this song are reserved by Beseech and its affiliates.

Guitar 1:
    Let ring--------------------------------------------|
D-------------------------------------------------------|
A-------------------------------------------------------|
F--9----------------------------------------------------|
C--9----------------------------------------------------|
G--7----------------------------------------------------|
C-------------------------------------------------------|


Guitar 2:
    Let ring--------------------------------------------|
D-------------------------------------------------------|
A-------------------------------------------------------|
F------9--------9-----9-------9-------------------------|
C----9------10------7-------9---------------------------|
G--7------7-------5-------7-----------------------------|
C-------------------------------------------------------|


Guitar 1 (Harmony w/ Guitar 2):
    Let ring-------------------------------------------|
D------------------------------------------------------|
A------------------------------------------------------|
F------9--------9-----9-------9------------------------|
C----9------10------7-------9--------------------------|
G--7------7-------5-------7----------------------------|
C------------------------------------------------------|
Tap to rate this tab
 
# A B C D E F G H I J K L M N O P Q R S T U V W X Y Z