Song name
# A B C D E F G H I J K L M N O P Q R S T U V W X Y Z

Beseech - Gimme Gimme Gimme tab

-------------------------------------------------------------------------------
			     Gimme Gimme Gimme - Beseech
-------------------------------------------------------------------------------
Tabbed by: Archon I
Email: Archonian@yahoo.com

Tuning: D

Intro:

D|-----------------------------------|
A|------5-------5-------5-------5----|
F|----4-------5-------2-------4------| (X6)
C|--2-----2-2-----2-0-----0-2-----2--|
G|-----------------------------------|
D|-----------------------------------|

      P.M.---    P.M.---    P.M.---    P.M.---
D|----------------------------------------------|
A|----------------------------------------------|
F|----------------------------------------------| (x2)
C|------------------------4-4444444-------------|
G|--2-2222222--5-5555555--2-2222222--2-2222222--|
D|--0-0000000--3-3333333-------------0-0000000--|

Verse:
                    P.M.---      P.M.---      P.M.---
D|-------------------------------------------------------------|
A|-------------------------------------------------------------|
F|-------------------------------------------------------------| (X2)
C|---------------2--2222222---2--2222222---2--2222222----------|
G|--/7--5--2-----0--0000000---0--0000000---0--0000000---2-(2)--|
D|------------3-------------3------------3------------3-0-(0)--|

Pre-chorus:

D|-------------------------|
A|-------------------------|
F|-------------------------|
C|--5-(5)---2-(2)---4-(4)--|
G|--3-(3)---0-(0)---2-(2)--|
D|-------------------------|

Chorus:
       P.M.    P.M.    P.M.    P.M.    P.M.    P.M.    P.M.    P.M.
D|----------------------------------------------------------------|
A|----------------------------------------------------------------|
F|----------------------------------------------------------------| (REPEAT)
C|----------5--555--7--777--9--999--5--555--9--999--7--777--9--999|
G|--2--222--3--333--5--555--7--777--3--333--7--777--5--555--7--777|
D|--0--000--------------------------------------------------------|


************************************

| /   slide up
| ()  sustain

************************************
Tap to rate this tab
 
# A B C D E F G H I J K L M N O P Q R S T U V W X Y Z