Song name
# A B C D E F G H I J K L M N O P Q R S T U V W X Y Z

Best Coast - I Want To tab

By: Eleda

Intro:

E---------------------------------------------|
B---------------------------------------------|
G---------------------------------------------|
D--5--5-5-5---5--5-5-5---4--4-4-4---4--4-4-4--|
A--5--5-5-5---5--5-5-5---4--4-4-4---4--4-4-4--|
E--3--3-3-3---3--3-3-3---2--2-2-2---2--2-2-2--|

   I.....................want you .............so...much
E-------------------------------------------------------|
B-------------------------------------------------------|
G-------------------------------------------------------|
D--5--5-5-5---5--5-5-5---4--4-4-4---4--4-4-4----9----5--|
A--5--5-5-5---5--5-5-5---4--4-4-4---4--4-4-4----9----5--|
E--3--3-3-3---3--3-3-3---2--2-2-2---2--2-2-2----7----3--|

I want you so much
And I want you so much
And I want you so much
And I want you so much

Oooh
Oooh

I miss you so much
And I miss you so much


(Note: For this part the chords are the same)
G
I want to, go back to
B                     E     C
The first time, the first place [x4]
Tap to rate this tab
 
# A B C D E F G H I J K L M N O P Q R S T U V W X Y Z