Song name
# A B C D E F G H I J K L M N O P Q R S T U V W X Y Z

Best Coast - The End chords

Highlighted       Show chord diagrams
 Intro

    G     D    G    D    A    D    A    D
e|------------------------------------------|
B|------------------------------------------|
G|-------7-7-------7-7-------7-7-------7-7--|
D|--5-5--7-7--5-5--7-7--7-7--7-7-------7-7--|
A|--5-5--5-5--5-5--5-5--7-7--5-5--7-7--5-5--|
E|--3-3-------3-3-------5-5-------5-5-------|



 1:06

     G          C
e|------------------------|
B|------------------------|
G|-----------5-5-5-5------| X4
D|--5-5-5-5--5-5-5-5------|
A|--5-5-5-5--3-3-3-3------|
E|--3-3-3-3---------------|


 1:20 

     A         C
e|--------------------------|
B|--------------------------|
G|-----------5-5-5-5--------|
D|--7-7-7-7--5-5-5-5--------| X4
A|--7-7-7-7--3-3-3-3--------|
E|--5-5-5-5-----------------|
Tap to rate this tab
# A B C D E F G H I J K L M N O P Q R S T U V W X Y Z