Song name
# A B C D E F G H I J K L M N O P Q R S T U V W X Y Z

Beth Gibbons Rustin Man - Mysteries tab

Mysteries
Beth Gibbons & Rustin Man

Tuning: EADGBE


Intro:

    Gm     
e |-------------------|
B |-------------------|
G |-------3--------3--|
D |-----5--------5----| etc... (5 mesures)
A |---5--------5------|
E |-3--------3--------|
    "Woooo  - ooooh


1st line:

| Gm | C  | F  | F |


Couplet/refrain:

| Dm | Bb | Gm | C |
| F  | F  | F  | F |

    Gm                C                 F                 F
e |-----------------|-----------------|-----------------|-----------------|
B |-----------------|-------5-------5-|-------3-------3-|-------3-------3-|
G |-------3-------3-|-----5-------5---|-----4-------4---|-----4-------4---|
D |-----5-------5---|---5-------5-----|---3-------3-----|---3-------3-----|
A |---5-------5-----|-3-------3-------|-----------------|-----------------|
E |-3-------3-------|-----------------|-1-------1-------|-1-------1-------|
           
...ooh     God        knows how I ad  -  ore life


    Dm                Bb                Gm                C                 
e |-----------------|-----------------|-----------------|-----------------|
B |-------6-------6-|-------3-------3-|-----------------|-------5-------5-|
G |-----7-------7---|-----3-------3---|-------3-------3-|-----5-------5---|
D |---7-------7-----|---3-------3-----|-----5-------5---|---5-------5-----|
A |-5-------5-------|-1-------1-------|---5-------5-----|-3-------3-------|
E |-----------------|-----------------|-3-------3-------|-----------------|

...wind turns on the shore lies         another day   I    cannot            


    F                 F                
e |-----------------|-----------------|
B |-----------------|-----------------|
G |-------4-------4-|-------4-------4-|
D |-----3-------3---|-----3-------3---|
A |---3-------3-----|---3-------3-----|
E |-1-------1-------|-1-------1-------|

   ask for more  


Intro:
Gm
  Woooooo 
  Woooooo

(background continues during the whole song)


Verses/choruses:

      C            F         F
  God knows how I adore life
           Dm                Bb           Gm
  When the wind turns on the shore lies another day
    C      F             F
  I cannot ask for more


           Dm       Bb
  When the timebell blows my heart
      Gm                         C  
  And I have scored a better day
              F                F
  Well nobody made this war of mine


          Dm               Bb
  And the moments that I enjoy
             Gm                C
  A place of love and mystery
                F         F
  I'll be there any time

      Dm               
  And mysteries of love 
        Bb             Gm
  Where war is no more
       c            F
  I'll be there any time

| Dm | Bb | Gm |
|  C | F  | F  |

  Woooooo
  Woooooo

  When the timebell blows my heart
  And I have scored a better day 
  Well nobody made this war of mine

  And the moments that I enjoy
  of place of love and mystery
  I'll be there any time

  Mysteries of love
  Where war is no more
  I'll be there any time


Coda:

| Dm | Bb | Gm |
|  C | F  | F  | (x4)
 
  Woooooo
  Woooooo"

   Dm              Bb          Gm              C        C   F    
e |--------------------------------------1------------------1~~-------------|
B |-------8-------6---6-5--------------3---3---------5--5---1~~-------------|
G |-----7-------7---7-----7-5--------3-------------5----5---2~~-------------|
D |---7-------7--------------------5-------------5------5---3~~-------------|
A |-5-------5--------------------5-------------3--------3---3~~-------------|
E |----------------------------3----------------------------1~~-------------|
       
-------------------------------------------

Tabbed by Sexytom

Comments - corrections: civetom@hotmail.com
Tap to rate this tab
 
# A B C D E F G H I J K L M N O P Q R S T U V W X Y Z