Song name
# A B C D E F G H I J K L M N O P Q R S T U V W X Y Z

Bethel Live - Forgiven tab

THIS IS NOT REALLY A SOLO ITS MORE OFF A RIFF BEFORE GOING INTO THE BRIDGE

E---------------------12--------------------14--|
B--14-14-14-14--12-14----14-14-14-14--12-14-----|
G-----------------------------------------------| 2X
D-----------------------------------------------|
A-----------------------------------------------|
E-----------------------------------------------|

ONCE YOU HAVE DONE THAT TWICE DO THIS

E---------------------------------------------------------|
B--12-12-12-12----14-12----14-12--10-7-7-7-7--5--7-7-7-7--|
G--------------14-------14--------------------------------|
D---------------------------------------------------------|
A---------------------------------------------------------|
E---------------------------------------------------------|

IN THIS GUITAR TAB YOU WILL HAVE TO LISTEN TO THE SONG IN ORDER TO UNDERSTAND THE TEMPO 
AND TIMING BECAUSE IN CERTAIN NOTES YOU WILL HAVE TO PLAY IT FASTER THAN THE REST OF THE 
NOTES.THIS TAB IS A 100% ACCURATE AND HAS NO MISTAKES BECAUSE IT HAS BEEN 
PROOFREADED BY A PROFESSIONAL GUITAR PLAYER
Tap to rate this tab
# A B C D E F G H I J K L M N O P Q R S T U V W X Y Z