Song name
# A B C D E F G H I J K L M N O P Q R S T U V W X Y Z

Bethel Live - You Are Good tab

#----------------------------------PLEASE NOTE---------------------------------#
#This file is the author's own work and represents their interpretation of the #
#song. You may only use this file for private study, scholarship, or research. #
#------------------------------------------------------------------------------##

YOU ARE GOOD (As performed by Bethel Church Live feat. Brian Johnson)

NOTE: The lead riff is played pretty much the same throughout the song. It get's swung
out latter in the song, but the progression is the same as the intro. They noodle a bit
with the notes of the progression on the bridge. Cool song, and not to hard to play once 
you get your head around the octave on the Lead riff. Joe - porkforest@gmail.com

Lead riff:
|-------------------------|-------------------------|-------------------------|
|-14-14-14-14-14-14-14-14-|-14-14-14-14-14-14-------|-17-17-17-17-17-17-17-17-|
|-------------------------|-------------------16-16-|-------------------------|
|-------------------------|-------------------------|-------------------------|
|-------------------------|-------------------------|-------------------------|
|-------------------------|-------------------------|-------------------------|

|-------------14-14-14-14-|-------------------------|-------------------------|
|-17-17-17-17-------------|-------------------------|-------------17-17-17-17-|
|-------------------------|-11-11-11-11-11-11-11-11-|-14-14-14-14-------------|
|-------------------------|-------------------------|-------------------------|
|-------------------------|-------------------------|-------------------------|
|-------------------------|-------------------------|-------------------------|

[Verse 1]
A
I want to scream it from every mountian top,
D
Your goodness knows no bounds, your goodness never stops,
F#m
Your mercy follows me, your kindness fills my life,
A                E
Your love amazes me

[Chorus]
A
(And/Yes) I sing because you are good,
And I dance because you are good,
       D
And I shout because you are good
You are good to me (to me)

[Verse 2]
Nothing and no one comes anywhere close to you,
The earth and the oceans deeply reflect this truth,
And in my darkest night you shine as bright as day,
Your love amazes me

[Chorus]

[Bridge]
       Bm7                     D
With a cry of praise my heart will proclaim,
         A
You are good, you are good,
       Bm7                  D
In the sun or rain my life celebrates,
         A
You are good you are good,
       Bm7                     D
With a cry of praise my heart will proclaim,
         A             E
You are good, you are good,
       Bm7                  D
In the sun or rain my life celebrates,
         A            E
You are good you are good,

[Chorus]

[Ending]
          A                  A/C#        D
Yes I'll sing yes I'll dance      and I shout
   D2(no3)        D                  A
For you are good you are good to me
Tap to rate this tab
# A B C D E F G H I J K L M N O P Q R S T U V W X Y Z