Guitaretab - guitar tabs
Song name
# A B C D E F G H I J K L M N O P Q R S T U V W X Y Z

Betrayed - Consequence tab

Number of strums varies in the chorus. 

Intro x1
e|----------------|
B|----------------|
G|---------5-5-5--|
D|-4-4-4---5-5-5--|
A|-4-4-4---3-3-3--|
E|-2-2-2----------|

Verse x3
e|-----------------------------|
B|-----------------------------|
G|--------------------5-5-5-5--|
D|-4-4-4-4-4-4-4-4-4--5-5-5-5--|
A|-4-4-4-4-4-4-4-4-4--3-3-3-3--|
E|-2-2-2-2-2-2-2-2-2-----------|

Verse x1
e|-------------------------|
B|-------------------------|
G|-------------------------|
D|-4-4-4-4-4-4-------------|
A|-4-4-4-4-4-4--Pickslide--|
E|-2-2-2-2-2-2-------------|

Chorus x2
e|-------------------------------------------------|-----------|
B|-------------------------------------------------|-----------|
G|-7-7-7---------9-9-9---------11-11-11--11-11-11--|----5-5-5--|
D|-7-7-7--7-7-7--9-9-9--9-9-9--11-11-11--11-11-11--|-4--5-5-5--|
A|-5-5-5--7-7-7--7-7-7--9-9-9--9--9--9---9--9--9---|-4--3-3-3--|
E|--------5-5-5---------7-7-7----------------------|-2---------|
[ Tab from: http://www.guitaretab.com/b/betrayed/166235.html ]
Verse x3
e|-----------------------------|
B|-----------------------------|
G|--------------------5-5-5-5--|
D|-4-4-4-4-4-4-4-4-4--5-5-5-5--|
A|-4-4-4-4-4-4-4-4-4--3-3-3-3--|
E|-2-2-2-2-2-2-2-2-2-----------|

Verse x1
e|-------------------------|
B|-------------------------|
G|-------------------------|
D|-4-4-4-4-4-4-------------|
A|-4-4-4-4-4-4--Pickslide--|
E|-2-2-2-2-2-2-------------|

Chorus x4
e|-------------------------------------------------|----|
B|-------------------------------------------------|----|
G|-7-7-7---------9-9-9---------11-11-11--11-11-11--|----|
D|-7-7-7--7-7-7--9-9-9--9-9-9--11-11-11--11-11-11--|-4--|
A|-5-5-5--7-7-7--7-7-7--9-9-9--9--9--9---9--9--9---|-4--|
E|--------5-5-5---------7-7-7----------------------|-2--|

Breakdown x8
e|-------------------------|
B|-------------------------|
G|-------------------------|
D|-4-4-4-4-4-4-------------|
A|-4-4-4-4-4-4--0-5-3-0-2--|
E|-2-2-2-2-2-2-------------|

Consequence x4
e|----------------------------|
B|----------------------------|
G|----------------------------|
D|-7-7-7--9-9-9--4-4-4-4-4-4--|
A|-7-7-7--9-9-9--4-4-4-4-4-4--|
E|-5-5-5--7-7-7--2-2-2-2-2-2--|
Advertisement will be closed in 10 seconds