Song name
# A B C D E F G H I J K L M N O P Q R S T U V W X Y Z

Bettie Serveert - Youve Changed tab

Bettie Serveert - You’ve changed

Standard Tuning.

There are some more parts but she just plays a C, Am, F and G (if my memory is correct).

Very nice song :-)

E|-------------------------------------------------------|
B|-------1---------1-------1-----------------------------|
G|---------------0-------0---------0---0-----------------|
D|----2----2-2h3-----3-2-----2-2h3-----------------------|
A|--3--------------------------------2-------------------|
E|-------------------------------------------------------|
        C               Csus4

E|---------------------------------------1----------------|
B|----1-----0-----0-3-----1-----0-----------3---1--1h3----|
G|------2-----2-------2-----2-----0--------------------2--|
D|--------2-----2-------2-----2-------0-------------------|
A|--0-----------------------------------------------------|
E|--------------------------------------------------------|
        Am              Amsus2                                  Dm

E|---------------------------------------|
B|------------1---------------1----------|
G|----------2---2-----------2---2--------|
D|--------3-------3-------3-------3------|
A|------3-----------3---3-----------3----|
E|--0-1---------------1------------------|
                   F                    F
Tap to rate this tab
 
# A B C D E F G H I J K L M N O P Q R S T U V W X Y Z