Song name
# A B C D E F G H I J K L M N O P Q R S T U V W X Y Z

Between The Buried And Me - Laser Speed tab

well heres the whole tab for the song cuz noone tabbed the whole thing...only the intro

Tuning: Standard

Intro
E  :-------------|2-----------|------------|0-------4---|
B  :2---h3-------|----3-------|----0-------|------------|
G  :---------2---|--------2---|2-------2---|----2-------|
D  :-------------|------------|------------|------------|
A  :2------------|------------|4-----------|------------|
E  :-------------|------------|------------|------------|

E  :5---3-h5-p3-p2-p0---|------------|------------|------------|
B  :--------------------|3-----------|0-----------|2-------3---|
G  :--------------------|--------0---|----2-------|------------|
D  :0-------------------|----4-------|--------0---|------------|
A  :--------------------|2-----------|------------|0-------2---|
E  :--------------------|------------|3-----------|------------|

E  :0------------|-------------|3---2-3-2-----|------------|-------------|
B  :-------------|---------0---|----------3---|------------|0---h1---3---|
G  :-------------|0---h2-------|--------------|0-----------|-------------|
D  :--------0-h2-|-------------|--------------|------------|-------------|
A  :3------------|-------------|2-------------|------------|0--------2---|
E  :-------------|-------------|--------------|------------|-------------|

E  :------------|------------|------------|1-----------|3-----------|
B  :5---7---8---|7-----------|------------|----1-------|----1-------|
G  :------------|5-----------|------------|--------2---|--------0---|
D  :------------|7-----------|------------|0-----------|2-----------|
A  :3---5---7---|6-----------|------------|------------|------------|
E  :------------|------------|------------|------------|------------|

E  :5-----------|7-----------|-8-----------|8-h10-p8---------|------------|
B  :----5-------|----6-------|-----8-------|---------8-------|----8-------|
G  :--------5---|--------7---|---------9---|-------------9---|--9---9---9-|
D  :3-----------|5-----------|10-----------|-----------------|9-------9---|
A  :------------|------------|-------------|-----------------|------------|
E  :------------|------------|-------------|-----------------|------------|

E  :8-h10-p8---------|8-----------|---------------|------------|
B  :---------8-------|----8-------|8-h10--8-------|--------8---|
G  :-------------9---|--------9---|-----------9---|----9-------|
D  :-----------------|8-----------|---------------|7-----------|
A  :-----------------|------------|---------------|------------|
E  :-----------------|------------|---------------|------------|

E  :8-----------|-----------------|---------------|-------------|
B  :------------|-9---------------|9-h11--9-------|---------8---|
G  :------------|-8-------------8-|-----------8---|-----6-----6-|
D  :------------|10----------10---|---------------|---8---8-----|
A  :------------|11-------11------|---------------|10-----------|
E  :------------|-----------------|---------------|-------------|

E  :-6-----------|----------------8-|--------------6-|----------------4--|
B  :-8-----------|-9-----8-h9-h11---|8-----6-h8-h9---|6---------6-------6|
G  :-6-----------|-8----------------|6---------------|5-------5---5------|
D  :-8-----------|10----------------|8---------------|6-----6-------6----|
A  :10-----------|-8----------------|7---------------|4---4--------------|
E  :-------------|------------------|----------------|-------------------|

E  :6-s8-6-4-3-----|------------|0---------0-----|-----------0-----|
B  :-----------4-5-|-----6----8-|1-----------1---|---------6-------|
G  :---------------|------------|2-------------2-|----4-h5---------|
D  :---------------|------------|3---------------|--7--------------|
A  :-------------3-|-----5----7-|----------------|0----------------|
E  :---------------|------------|1---------------|-----------------|
                                        2nd part
E  :----------------|--------5---------|--------5---3---|5-----5-8-5-----|
B  :3-----3-5-----5-|------6---8-------|----------------|5-------------6-|
G  :--2-------3-----|----5-----7-------|----------------|5-------------7-|
D  :----3-------5---|--7-------8-------|----------------|7-------------7-|
A  :1-------3-------|5---------7-------|----------------|8---------------|
E  :----------------|------------------|----------------|--------------6-|

E  :----------------|5-----5-8-5-----|-----------------|---------12-10-----|
B  :--6-----6-6-----|5-------------6-|--6---8---8---10-|--10--------10-----|
G  :--7-----7-7-----|5-------------7-|--7---7---7---10-|--10-----10--------|
D  :--7-----7-7-----|7-------------7-|--7---8---8---10-|--10---------------|
A  :----------------|8---------------|-----------------|-------------------|
E  :--6---6---------|--------------6-|--6---8---8---10-|--10---------------|

E  :----------------|-----------------|------------------|
B  :--8---5---5---6-|--6---8---8---10-|--10---8---8---10-|
G  :--7---5---5---7-|--7---7---7---10-|--10---7---7----9-|
D  :--7---5---5---7-|--7---8---8---10-|--10--------------|
A  :----------------|-----------------|-------7---7----8-|
E  :6-----5---5---6-|--6---8---8---10-|--10--------------|

E  :------------------|----------------|7-5-------------|----------------|
B  :--10---12---------|--------5-------|--5---5---5-----|5-6-----8-------|
G  :---9---10---------|--------5-------|5-----5---5-----|5-5-----7-------|
D  :------------------|--------5-------|----------------|--------7-------|
A  :---8---10---------|----------------|------5---5---5-|5-5-----7-----7-|
E  :------------------|--------5-----5-|----------------|----------------|

E  :10-7-------------|----------------|----------------|----------------|
B  :-8-8---8---5-----|--------4-------|--6---8---8-----|--6---5---5-----|
G  :-------7---------|--------3-------|--5---7---7-----|--5---5---5-----|
D  :-------7---3-----|----------------|--5---7---7-----|--5-------------|
A  :-------7---3-----|--------3-------|--5---7---7-----|--5---5---5---5-|
E  :-----------------|----------------|----------------|----------------|

E  :----------------|----------------|5---------------|7---------------|
B  :5-5-----------5-|--5---6---6---6-|--6---8---8---8-|--8---6---6---6-|
G  :5-5-------7---6-|--6---5---5-----|------7---7-----|------5---5-----|
D  :----------7---7-|--7---5---5-----|------7---7-----|------5---5-----|
A  :5-5-----------5-|--5---5---5-----|------7---7-----|------5---5-----|
E  :--------6-------|----------------|----------------|----------------|

E  :5---------------|7---------------|5---------------|7---------------|
B  :--6---8---8---8-|--8---6---6---6-|--6---8---8---8-|--8---6---6---5-|
G  :------7---7-----|------5---5-----|------7---7-----|------5---5---5-|
D  :------7---7-----|------5---5-----|------7---7-----|------5---5---5-|
A  :------7---7-----|------5---5-----|------7---7-----|------5---5---5-|
E  :----------------|----------------|----------------|----------------|

E  :----------------|----------------|----------------|----------------|
B  :--5-------------|----------------|------5---5-----|5-5---5---5-----|
G  :--5-----8---8---|--8---2---2-----|2-2---5---5-----|5-5---5---5-----|
D  :--5-----8---8---|--8---2---2-----|2-2---5---5-----|5-5-------------|
A  :--5-------------|----------------|----------------|------5---5---5-|
E  :------8---------|8-----1---1---1-|------5---5---5-|----------------|

E  :----------------|----------------|----------------|----------------|
B  :5-5---3---3-----|3-3---3---3-----|3-3---3---3-----|3-5-------------|
G  :5-5---4---4-----|4-4---3---3-----|3-3---3---3-----|3-3---2---2-----|
D  :------4---4-----|4-4---3---3-----|3-3-------------|------2---2-----|
A  :----------------|----------------|------3---3---3-|----------------|
E  :------3---3---3-|------3---3---3-|----------------|------1---1---1-|

E  :----------------|----------------|7-5-------------|----------------|
B  :----------8---6-|--6---5---5-----|--5---5---5-----|5-6-----8-------|
G  :2-2-------7---7-|--7---5---5-----|5-----5---5-----|5-5-----7-------|
D  :2-2-------6---6-|--6---5---5-----|----------------|--------7-------|
A  :--------7-----7-|--7-------------|------5---5---5-|5-5-----7-----7-|
E  :----------------|------5---5---5-|----------------|----------------|

E  :10-7-------------|----------------|----------------|----------------|
B  :-8-8---8---5-----|--------4-------|--6---8---8-----|--6---5---5-----|
G  :-------7---------|--------3-------|--5---7---7-----|--5---5---5-----|
D  :-------7---3-----|----------------|--5---7---7-----|--5-------------|
A  :-------7---3-----|--------3-------|--5---7---7-----|--5---5---5---5-|
E  :-----------------|----------------|----------------|----------------|

E  :----------------|----------------|5---------------|7---------------|
B  :5-5-----------5-|--5---6---6---6-|--6---8---8---8-|--8---6---6---6-|
G  :5-5-------7---6-|--6---5---5-----|------7---7-----|------5---5-----|
D  :----------7---7-|--7---5---5-----|------7---7-----|------5---5-----|
A  :5-5-----------5-|--5---5---5-----|------7---7-----|------5---5-----|
E  :--------6-------|----------------|----------------|----------------|

E  :5---------------|7---------------|5---------------|7---------------|
B  :--6---8---8---8-|--8---6---6---6-|--6---8---8---8-|--8---6---6---5-|
G  :------7---7-----|------5---5-----|------7---7-----|------5---5---5-|
D  :------7---7-----|------5---5-----|------7---7-----|------5---5---5-|
A  :------7---7-----|------5---5-----|------7---7-----|------5---5---5-|
E  :----------------|----------------|----------------|----------------|

E  :----------------|----------------|----------------|7-5-------------|
B  :--5-------------|----------------|------5---5-----|--5---5---5-----|
G  :--5-----8---8---|--8---2---2-----|2-2---5---5-----|5-5---5---5-----|
D  :--5-----8---8---|--8---2---2-----|2-2---5---5-----|5-5-------------|
A  :--5-------------|----------------|----------------|------5---5---5-|
E  :------8---------|8-----1---1---1-|------5---5---5-|----------------|

E  :----------------|----------------|----------------|----------------|
B  :5-5---3---3-----|3-3---3---3-----|3-3---3---3-----|3-5-------------|
G  :5-5---4---4-----|4-4---3---3-----|3-3---3---3-----|3-3---2---2-----|
D  :------4---4-----|4-4---3---3-----|3-3-------------|------2---2-----|
A  :----------------|----------------|------3---3---3-|----------------|
E  :------3---3---3-|------3---3---3-|----------------|------1---1---1-|

E  :----------------|--------5-------|
B  :----------8---6-|--6-----5-------|
G  :2-2-------7---7-|--7-----5-------|
D  :2-2-------6---6-|--6-----7-------|
A  :--------7-----7-|--7-----0-------|
E  :----------------|----------------|

enjoy!
Tap to rate this tab
# A B C D E F G H I J K L M N O P Q R S T U V W X Y Z