Beulah - Dont Forget To Breathe chords

Highlighted       Show chord diagrams
-------------------------------------------------------------------------------
			     Don't Forget to breathe - Beulah
-------------------------------------------------------------------------------
Tabbed by: Slicers toe
Email:

Tuning: Capo 2

Chords Needed:
Em
Fmaj
Cmaj
Gmaj Barre
Dmaj
Amaj
Bmaj Barre
Bb maj Barre

   (barre on 2)  (Barre on 3)               (Barre on 2)  (Barre on 1)
         ^             ^                         ^            ^
   Em  Fmaj  Cmaj   Gmaj    Dmaj      Amaj     Bmaj        Bbmaj
e|-------X-------------3------2------------------2-------------1-------------|
B|-------4-----1-------3------3---------3--------2-------------1-------------|
G|-------4-------------4------2---------3--------3-------------2-------------|
D|--2----4-----2-------5----------------3--------4-------------3-------------|
A|--2----2-----3-------5-------------------------4-------------3-------------|
E|-------X-------------3------X------------------X-------------X-------------|



Intro: Em, Fmaj, Cmaj, Gmaj, Dmaj, Amaj  X2

Verse:

Em                   Fmaj
Your Last Words Will Not Be Heard,
C
There's Too Many Of Them That No One Deserves
Gmaj              Dmaj       Amaj
I Don't need your love
Em             Fmaj
And Land Mines Hide In Your Lines,
Cmaj
There's Too Many Maps And Not Enough Signs
Gmaj              Dmaj       Amaj
I don't need your love

Chorus:

Fmaj
So lie awake, so wide awake
Cmaj                   Gmaj
Cause in my dreams I'm dying
Em                    Cmaj
You wait for light to kill the night
Amaj
But is it worth me trying?

Verse:

Em            Fmaj
A deep breath out on the steps
Cmaj
It's only air you feel in your chest
Gmaj            Dmaj     Amaj
Don't need your love
Em       Fmaj
Okay you staked your claim
Cmaj
It's only blood you had in your veins
Gmaj            Dmaj     Amaj
Don't need your love

Chorus:

Fmaj
So lie awake, so wide awake
Cmaj                   Gmaj
Cause in my dreams I'm dying
Em                         Cmaj
The Sun will rise, and the moon will die
Amaj
But is it worth me trying?

Bridge:

Gmaj        Fmaj                   Cmaj        
And it's so late and where will you stay?
Gmaj                                Bmaj  Bbmaj  Em
It makes no difference because it's all   a      dream
Cmaj
And tomorrow I'll wake,
Gmaj
Tomorrow I'll wake.
Amaj
It makes no difference.
Amaj
It makes no difference.

Instrumental Bridge: Em, Fmaj, Cmaj, Gmaj, Dmaj, Amaj  X2

Chorus:

Fmaj
Lie awake, time will take
Cmaj                 Gmaj
All the dreams worth dying
Em                      Cmaj
Close your eyes and the moon will sigh
Amaj
But is it worth me trying?

Outro: Fmaj, Cmaj, Gmaj, Cmaj
Tap to rate this tab
 
# A B C D E F G H I J K L M N O P Q R S T U V W X Y Z