Song name
# A B C D E F G H I J K L M N O P Q R S T U V W X Y Z

Beyonce - Halo tab

-------------------------------------------------------------------------------
			     Halo - Kris Farrow
-------------------------------------------------------------------------------
First tab
idk what do
This is Chris Farrow's version of Beyonce's 'Halo' and i found no tab for it
so here you go~
https://www.youtube.com/watch?v=jxe2IFNVHcA
Tabbed by: AirJunior
E-mail:

Tuning: Standard - Capo 7
     D                                                  Em7 
e|---3-----------3-----------3-----------3-----0---2---3-----------3---------|
B|---------2-----------2-----------2-------------------------3-----------3---|
G|------3-----3-----3-----3-----3-----3-----3-------------0-----0-----0-----0|
D|---0-------------------------------------------------2---------------------|
A|---------------------------------------------------------------------------|
E|---------------------------------------------------------------------------|
                                Bm
e|---3-----2-----0h2p0-------------------------------------------------0-----|
B|----------------------3---2---0------------0-----------3-----------3---3--2|
G|------0-----0-----------------------4------------4-----------4-------------|
D|---------------------------------4-----4------4-----4-----4-----4----------|
A|------------------------------2--------------------------------------------|
E|---------------------------------------------------------------------------|
     G                                                   D
e|-------------------------------------------------------3-------------------|
B|---0-----------3-----------3-----------3---2---0-------2-------------------|
G|---------0-----------0-----------0----------------2----3-------------------|
D|------0-----0-----0-----0-----0-----0------------------0-------------------|
A|---------------------------------------------------------------------------|
E|---3-----------------------------------------------------------------------|

************************************

| h   hammer-on
| p   pull-off

************************************
Tap to rate this tab
 
# A B C D E F G H I J K L M N O P Q R S T U V W X Y Z