Song name
# A B C D E F G H I J K L M N O P Q R S T U V W X Y Z

Biesheuvel Merijn - Wilhelmus tab

Help us improve GuitareTab! Take a short survey!
e-------------------------------------------------------------------------------------|
b------------------12--13------12-----12--13--12--------------------------------------|
g------12--12--14----------14-----14------------14--12--14b--12-----------------------|
d----12-------------------------------------------------------------------------------|
a-------------------------------------------------------------------------------------|
e-------------------------------------------------------------------------------------|


e---------------12--------------------------------------------------------------------|
b-----------15-----15-----------------------------------------------------------------|
g---16--17-------------17--16--14--16--16h17--16--14--12--12/14-----------------------|
d-------------------------------------------------------------------------------------|
a-------------------------------------------------------------------------------------|
e-------------------------------------------------------------------------------------|


e-------------------------------------------------------------------------------------|
b-------------------------------------------------------------------------------------|
g------------------14--14h16--14------------------------------------------------------|
d--12--17--16--17-----------------17--16--12----14--16--16h17--17--16--17-------------|
a-------------------------------------------------------------------------------------|
e-------------------------------------------------------------------------------------|
Related for Wilhelmus tab