Song name
# A B C D E F G H I J K L M N O P Q R S T U V W X Y Z

Biffy Clyro - Biblical tab

Tuning: Drop Db

Intro x2

|--------------------------------|
|-5--5--5------------------------|
|-5--5--5------------------------|
|-------3------------------------|
|-3--0---------------------------|
|--------------------------------|

Verse (PM)

|----------------------------------------------------|
|----------------------------------------------------|
|-5-----9------9-------------------------------------|
|-5-x8--7--x8--10-x16--------------------------------| x2
|-3-----7------8-------------------------------------|
|-------7--------------------------------------------|


|----------------------------------------------------|
|-6------------------6-------------------------------|
|-7-----9------7-----7-----5-----5-----4-------------|
|-7-x8--7--x8--5-x8--7-x8--3-x8--5-x8--5-x16---------|
|-5-----7------5-----5-----3-----3-----2-------------|
|-------7------5-----------3-------------------------|

Chorus

|----------------------------------------------------|
|----------------------------------------------------|
|-5-----9-----10----9--------------------------------|
|-5-x8--10-x8-10-x8-7-x8-----------------------------|
|-3-----7-----8-----7--------------------------------|
|-------------------7--------------------------------|

|----------------------------------------------------|
|----------------------------------------------------|
|-5-----9-----10----9----11--------------------------|
|-5-x8--10-x8-10-x8-7-x4-9--x4-----------------------|
|-3-----7-----8-----7----9---------------------------|
|-------------------7----9---------------------------|

Post-chorus

|----------------------------------------------------|
|----------------------------------------------------|
|-5-----5-----9------7-------------------------------|
|-5-x8--3-x8--10-x8--5-x8----------------------------|
|-3-----3-----7------5-------------------------------|
|-------3------------5-------------------------------|

Verse (PM)

|----------------------------------------------------|
|----------------------------------------------------|
|-5-----9------9-------------------------------------|
|-5-x8--7--x8--10-x16--------------------------------| x2
|-3-----7------8-------------------------------------|
|-------7--------------------------------------------|


|----------------------------------------------------|
|-6------------------6-------------------------------|
|-7-----9------7-----7-----5-----5-----4-------------|
|-7-x8--7--x8--5-x8--7-x8--3-x8--5-x8--5-x16---------|
|-5-----7------5-----5-----3-----3-----2-------------|
|-------7------5-----------3-------------------------|

Chorus

|----------------------------------------------------|
|----------------------------------------------------|
|-5-----9-----10----9--------------------------------|
|-5-x8--10-x8-10-x8-7-x8-----------------------------|
|-3-----7-----8-----7--------------------------------|
|-------------------7--------------------------------|

|----------------------------------------------------|
|----------------------------------------------------|
|-5-----9-----10----9----11--------------------------|
|-5-x8--10-x8-10-x8-7-x4-9--x4-----------------------|
|-3-----7-----8-----7----9---------------------------|
|-------------------7----9---------------------------|

Post-chorus

|----------------------------------------------------|
|----------------------------------------------------|
|-5-----5-----9------7-------------------------------|
|-5-x8--3-x8--10-x8--5-x8----------------------------| x2
|-3-----3-----7------5-------------------------------|
|-------3------------5-------------------------------|

Bridge

|----------------------------------------------------|
|----------------------------------------------------|
|-5-----5-----9------7-------------------------------|
|-5-x8--3-x8--10-x8--5-x8----------------------------|
|-3-----3-----7------5-------------------------------|
|-------3------------5-------------------------------|

Guitar Solo (picking very fast)

|----------------------------------------------------|
|----------------------------------------------------|
|-|-5--7--9-|-x6-times---4-5-7--7-9-10-9-------------|
|----------------------------------------------------|
|----------------------------------------------------|
|----------------------------------------------------|

Repeat Intro
Tap to rate this tab
# A B C D E F G H I J K L M N O P Q R S T U V W X Y Z