Guitaretab - guitar tabs
Song name
# A B C D E F G H I J K L M N O P Q R S T U V W X Y Z

Big Audio Dynamite - Bad tab

-------------------------------------------------------------------------------
			     Bad  Big Audio Dynamite
-------------------------------------------------------------------------------
Tabbed by: Josh
Email: joshharris56@gmail.com

Tuning: Standard


           Asus2              A        
e-----------------------------0x---|
B-----------------------------2x---|
G----------2~-----------------2x---| 
D----------2~-----------------2x---|
A----------0~-----------------0x---|
E----------------------------------|


[ Tab from: http://www.guitaretab.com/b/big-audio-dynamite/173113.html ]
           Asus2              A A A G D  A            
e-----------------------------0-0-0-3-2--0x---|
B-----------------------------2-2-2-3-3--2x---|
G----------2~-----------------2-2-2-0-2--2x---|   
D----------2~-----------------2-2-2-0-0--2x---|
A----------0~-----------------0-0-0-2-0--0x---|
E-------------------------------------3-------|
                              v ^ v v v  v			      

					 

| ^  up strum            
| v  down strum
| ~  vibrato
| x  mute

Official Website: http://en.wikipedia.org/wiki/Big_Audio_Dynamite/
Related for Bad tab