Guitaretab - guitar tabs
Song name
# A B C D E F G H I J K L M N O P Q R S T U V W X Y Z

Big Bang - Make Love tab

Big Bang - Make Love
Standard tuning
Capo on 1st fret

It sounds the same when played along with Tae Yang's version of Make Love.
Video here : http://www.youtube.com/watch?v=Wm9i6JXvpiU

Main riff / Intro :
e------------------------------------------------------------------------------------|
A---0---1--0---0~----0---1--0---0~----0---1~--0---1~--0---1~---0---------------------|
G-----0------0----------0------0----------0---------0-------0---------0--------------|
D----------------------------------------------------------------------------0~------|
B----------------------------------------0-------------------------------------------|
E-1------------------3---------------------------------------------------------------|
[ Tab from: http://www.guitaretab.com/b/big-bang/195600.html ]
------------------------------------------------------------------------------------|
---0---1--0---0~----0---1--0---0~----0---1~--0---1~--0----1---0---------------------|
-----0------0----------0------0----------0---------0-------0--2---0-----------------|
------------------------------------------------------------------2---0-------------|
----------------------------------------0-------------------------------------------|
-1------------------3---------------------------------------------------------------|

Verse

-----------------------------------------------------------------------------------|
-----1-0---------1-0-----------1-0---1-0----1-0------------------------------------|
-----0-0--------0-0-----------0-0---0-0----0-0-------------------------------------|
-----------------------------------------------------------------------------------|
---------------------------0-------------------------------------------------------|
-1-x-----x---3-x-----x-------x------x------x---------------------------------------|

For Pre chorus and Chorus, just play around with F,G and Am.

x = slap
~ = let ring
Related for Make Love tab
Make Love chords by Big Bang