Song name
# A B C D E F G H I J K L M N O P Q R S T U V W X Y Z

Big Bang - Haru Haru tab

-------------------------------------------------------------------------------
			     HARU HARU - Big Bang
-------------------------------------------------------------------------------
Tabbed by: Kevin Lee
Email: kevinlee324@yahoo.com

Tuning: Drop D (one half step lower as well)


my friend showed me this song and I liked the riff enough to tab it out. My first tab :O
It's tabbed in one half step lower Drop D because my guitar happened to be like that.
It's possible to have one guitar play the part for the top 3 strings and the other the
bottom three strings to make the song a lot easier.
notes in () are alternate fingerings you may or may not like better
Enjoy!


first part of intro riff:

eb|------15p14---------------------------15p14-------------------------15-14---------------|
Bb|---12--------15-12-----------------12--------10------------------12-------15------------|
Gb|--------------------------------------------(14)-----------------------------12---------|
Db|-------------------------12---------------------------14--------------------------------|
Ab|----------------------14---------------------------12-----------------------------------|
Db|-------------------14---------------------------12--------------------------------------|

eb|-----------------------------------------------|
Bb|-----------------------------------------------|
Gb|-----------------------------------------------|
Db|--------16h17--------16h17--------16h17--------|    x3
Ab|-----14-----------14-----------14--------------|
Eb|--14-----------14-----------14-----------------|

last part:

eb|------15p14---------------------------15p14--15-15/17-------------------15------14-15--|
Bb|---12--------15-12-----------------12--------------------------------12----------------|
Gb|---------------------------------------------------------------------------------------|
Db|-------------------------12---------------------------------14-------------------------|
Ab|----------------------14---------------------------------12----------------------------|
Eb|-------------------14---------------------------------12-------------------------------|

eb|----------------------------------|
Bb|----------------------------------|
Gb|-------------------(14)-----------|
Db|--------14-16-17-14-19----16h-17--|
Ab|-----14----------------14---------|
Eb|--14------------------------------|


| /  slide up
| \  slide down
| h  hammer-on
| p  pull-off
| ~  vibrato
| +  harmonic
| x  Mute note
===============================================================================
Tap to rate this tab
# A B C D E F G H I J K L M N O P Q R S T U V W X Y Z