Song name
# A B C D E F G H I J K L M N O P Q R S T U V W X Y Z

Big Boi - Shutterbug tab

Big Boi - Shutterbug
Tuning: Drop D

Transcribed by: Stijn Strotmann



 Basic riff:
|-------------|--------------|-------------|--------------|
|-------------|--------------|-------------|--------------|
|-------------|--------------|-------------|--------------|
|-------------|--------------|-------------|--------------|
|-------------|--------------|-------------|--------------|
|-333322-2200-|-33--322-2200-|-333355-5200-|-33--355-5200-|


It's not right, but its something ;)

|------------------------12---10----| 
|-10--13-13-13-13-12-12----12----10-|
|-----------------------------------|
|-----------------------------------|
|-----------------------------------|
|-----------------------------------|

|-----------------------------------|
|-----------------------------------|
|---2nd bit is a little varation----|
|-----------------------------------|
|-----------------------------------|
|-----------------------------------|

|---------------10-10--10-13-10-12--|
|--12-13-13--13---------------------|
|-----------------------------------|
|-----------------------------------|
|-----------------------------------|
|-----------------------------------|


|-----10-10-------------------------|
|--10--------13-13-13--12-12-10-10--|
|-----------------------------------|
|-----------------------------------|
|-----------------------------------|
|-----------------------------------|

 Clean Guitar

|-------------------|
|-10--13--15--13-12-|
|-9---12--14--12-11-|
|-7---10--12--10-9--|
|(7)----------------|
|-------------------|


|-----------------------------------|
|-10--13--15------------------------|
|-9---12--14------------5-7p5-------|
|-7---10--12------5-5/7-------7-----|
|-------------5/7---------------7-5-|
|-----------------------------------|
Tap to rate this tab
 
# A B C D E F G H I J K L M N O P Q R S T U V W X Y Z