Guitaretab - guitar tabs
Song name
# A B C D E F G H I J K L M N O P Q R S T U V W X Y Z

Big Country - Soul On Fire tab

Soul On Fire by Big Country from the Rarities 2 album

Intro
       A             D                 A                 E
E|----------------------------------------------------------------|
B|----------------------------------------------------------------|
G|-------------------11-11-11-11h14-11----------------------------|
D|9-11-9-7-7-7s11h14-0--0--0--0--0--0--14-14-14-11-14-11----------|
A|0-0--0-0-0-0-0--0--------------------0--0--0--0--0--0--14-14-14-|
E|-------------------------------------------------------0--0--0--|

         A           D                 A           E           A
E|-------------------------------------------------------------------|
B|-------------------------------------------------------------------|
G|-------------------11-11-11-11h14-11-------------------------------|
D|9s11-9-7-7-7s11h14-0--0--0--0--0--0--14-14-14-11-------11----7-7-7-|
A|0----0-0-0-0-0--0--------------------0--0--0--0--14-14-0--14-0-0-0-|
E|-------------------------------------------------0--0-----0--------|

Verse 1
Asus2           
Youíre on the phone, itís four a.m.
F#m                    Esus4
Your little life is in pieces again
Asus2
The line breaks up but I hear you swear
F#m               Esus4
I almost felt him lying there
    D                         E                   F#m     E
And both of us know that itís all gonna to happen again
    D                         E                   F#m     E
And both of us know that itís all gonna to happen again
    D                     E                       Asus2
And both of us try and pretend that itís going to change

Verse 2
Asus2
The stolen flowers at the foot of the stairs
F#m                       Esus4
A ripped up dress and the broken chair
Asus2
An empty glass and a red eyed child
F#m                    Esus4
The bitter prizes of a life gone wild
    D                         E                   F#m     E
And both of us know that itís all gonna to happen again
    D                     E                       Asus2
And both of us try and pretend that itís going to change

Chorus
    D          A      F#m        A
But some girls do and some girls donít
D          A          F#m        A
Some girls will while some girls wonít
D       A           F#m          Bm
I donít care whatís wrong whatís right
D         A       E      A
I heard a soul on fire tonight
D         A       E      A
I heard a soul on fire tonight
D         A       E      A
I heard a soul on fire tonight
D         A       E      A
I heard a soul on fire tonight

Guitar solo
       A             D                 A                 E
E|----------------------------------------------------------------|
B|----------------------------------------------------------------|
G|-------------------11-11-11-11h14-11----------------------------|
D|9-11-9-7-7-7s11h14-0--0--0--0--0--0--14-14-14-11-14-11----------|
A|0-0--0-0-0-0-0--0--------------------0--0--0--0--0--0--14-14-14-|
E|-------------------------------------------------------0--0--0--|
[ Tab from: http://www.guitaretab.com/b/big-country/141369.html ]
         A           D                 A           E           A
E|-------------------------------------------------------------------|
B|-------------------------------------------------------------------|
G|-------------------11-11-11-11h14-11-------------------------------|
D|9s11-9-7-7-7s11h14-0--0--0--0--0--0--14-14-14-11-------11----7-7-7-|
A|0----0-0-0-0-0--0--------------------0--0--0--0--14-14-0--14-0-0-0-|
E|-------------------------------------------------0--0-----0--------|

       A             D                 A                 E
E|----------------------------------------------------------------|
B|----------------------------------------------------------------|
G|-------------------11-11-11-11h14-11----------------------------|
D|9-11-9-7-7-7s11h14-0--0--0--0--0--0--14-14-14-11-14-11----------|
A|0-0--0-0-0-0-0--0--------------------0--0--0--0--0--0--14-14-14-|
E|-------------------------------------------------------0--0--0--|

         A           D                 A           E           A
E|-------------------------------------------------------------------|
B|-------------------------------------------------------------------|
G|-------------------11-11-11-11h14-11-------------------------------|
D|9s11-9-7-7-7s11h14-0--0--0--0--0--0--14-14-14-11-------11----7-7-7-|
A|0----0-0-0-0-0--0--------------------0--0--0--0--14-14-0--14-0-0-0-|
E|-------------------------------------------------0--0-----0--------|

Verse 3
Asus2
Youíre at the door itís six a.m.
F#m                   Esus4
Youíve fallen into my life again
Asus2
The suitcase is empty you canít tell me why
F#m                     Esus4
I drive you back to the wreckage again
    D                         E                   F#m     E
And both of us know that itís all gonna to happen again
    D                     E                       Asus2
And both of us try and pretend that itís going to change

Chorus
     D          A      F#m        A
Well some girls do and some girls donít
D          A          F#m        A
Some girls will while some girls wonít
D       A          F#m         Bm
I donít care whoís wrong whoís right
D         A       E      A
I heard a soul on fire tonight
D         A       E      A
I heard a soul on fire tonight
D         A       E      A
I heard a soul on fire tonight
D         A       E      A
I heard a soul on fire tonight

Chorus
D          A      F#m        A
Some girls do and some girls donít
D          A          F#m        A
Some girls will while some girls wonít
D       A           F#m          Bm
I donít care whatís wrong whatís right
D         A       E      A
I heard a soul on fire tonight
D         A       E      A
I heard a soul on fire tonight
D         A       E      A
I heard a soul on fire tonight
D         A       E      A
I heard a soul on fire tonight

Outro
D          A      F#m        A
Some girls do and some girls donít
D          A          F#m        A
Some girls will while some girls wonít
D       A          F#m         Bm
I donít care whoís wrong whoís right
D         A       E      A
I heard a soul on fire tonight

This is how I play the song on my acoustic. Hope you like it....taff

Chords	 standard tuning
A	 X 0 2 2 2 0
Asus2	 X 0 2 2 0 0 
Bm	 2 2 4 4 3 2
D	 X X 0 2 3 2 
E	 0 2 2 1 0 0
Esus4    0 2 2 2 0 0 
F#m	 2 4 4 2 2 2
Related for Soul On Fire tab