Song name
# A B C D E F G H I J K L M N O P Q R S T U V W X Y Z

Big Star - Try Again tab

-------------------------------------------------------------------------------
			     Try Again - Big Star
-------------------------------------------------------------------------------
Tabbed by: Jeff


intro: G Gsus2 C (play one time alone)


slide gtr
                 .
e|-----------------------------------------------------------------------------|
B|--------12-----12--10\-----------------------------12------------------------|
G|------------------------7--7/9---10\9----------------------------------------|
D|-10/12------12------------------------10---10/12-----------------------------|
A|-----------------------------------------------------------------------------|
E|-----------------------------------------------------------------------------|


G             Gsus2     C         D7
Lord Ive been trying to be what I should

G             Gsus2     C         D7
Lord Ive been trying to do what I could

         C                     Bb7      G
But each time it gets a little harder

           Em        C
I feel the pain

             G
But I'll try again

slide gtr
e|-----------------------------------------------------------------------------|
B|---/12----12--10\------------------------------------------------------------|
G|------------------7--7/12---14\12--12\11-------------------------------------|
D|--------12--------------------------------/12-------12-----------------------|
A|-----------------------------------------------------------------------------|
E|-----------------------------------------------------------------------------|

then it slits into two slide parts, separated in stereo
slide gtr R             .
e|-------17\15--------------------------------------------------------------|
B|--/12--------/18-16--/18--------------------------------------------------|
G|--------------------------18\14~~14-14/16--17-16-16\14--/11--------7/12-12|
D|---------------------------------------------------------------/12--------|
A|--------------------------------------------------------------------------|
E|--------------------------------------------------------------------------|


e|-----------------------11~~-----------------15--17\15--12--------------------|
B|--------12\8-8---8/10-------12\10--------12--------------12------------------|
G|-14-12----------------------------12--14-------------------------------------|
D|-----------------------------------------------------------------------------|
A|-----------------------------------------------------------------------------|
E|-----------------------------------------------------------------------------|


e|----------------------12--------|
B|-/13--13\12---------------------|
G|------------12--12/14-----------|
D|--------------------------------|
A|--------------------------------|
E|--------------------------------|

Slide gtr L
e|------12\10------------------------------------------------------------------|
B|-/12--------12\10---10-10\7--------------------------------------------------|
G|-----------------------------7/12---14\12--12\11-----------7/12--12-14-12----|
D|---------------------------------------------------/12--12-------------------|
A|-----------------------------------------------------------------------------|
E|-----------------------------------------------------------------------------|


e|-----------------------------------------12\10-------------------------------|
B|-12\8-8---8/10---12~~12\10-------------12------12\8--/13--13\12--------------|
G|----------------------------12--12--14--------------------------12---12~~----|
D|-----------------------------------------------------------------------------|
A|-----------------------------------------------------------------------------|
E|-----------------------------------------------------------------------------|

G             Gsus2     C         D7
Lord Ive been trying to be understood

G                 Gsus2     C         D7
And lord Ive been trying to do as you would

         C                     Bb7      G
But each time it gets a little harder

           Em        C
I feel the pain

             G
But I'll try again


(variation on intro slide gtr)

| /  slide up
| \  slide down
| h  hammer-on
| p  pull-off
| ~  vibrato
| +  harmonic
| x  Mute note
===============================================================================
Tap to rate this tab
# A B C D E F G H I J K L M N O P Q R S T U V W X Y Z