Song name
# A B C D E F G H I J K L M N O P Q R S T U V W X Y Z

Big Sugar - Dear Mr Fantasy tab

Help us improve GuitareTab! Take a short survey!
Dear Mr. Fantasy
Big Sugar


Tuning: Open G

intro
e|--------3-3-3----------------|
B|-2-2-2--0-0-0--7-7-7--2------|
G|-2-2-2--0-0-0--7-7-7--2------|
D|-2-2-2--0-0-0--7-7-7--2------|
G|-2-2-2---------7-7-7--2------|
D|--------5-5-5----------------|

e|--------------------|
B|--------------------|
G|--------------------|
D|--------------------|
G|-----2-5-2-5--------|
D|-2-5----------------|

e|--------3---------------------------------|
B|-2-2-2--0-----7-7---2-2-------------------|
G|-2-2-2--0-----7-7---2-2-------------------|
D|-2-2-2--0-----7-7---2-2-------------------|
G|-2-2-2--------7-7---2-2------2-5-2-5------|
D|--------5----------------2-5--------------|

verse
e|-----3-------------------------------------------------|
B|-2---0--------7------2---------------------------------|
G|-2---0--------7------2---------------------------------|
D|-2---0--------7------2---------------------------------|
G|-2------------7------2---------------------2-5-2-5-----|
D|-----5---------------------------------2-5-------------|

e|--------3-3-3----------------------------|
B|-2-2-2--0-0-0--7-7-7--2-2-2--------------|
G|-2-2-2--0-0-0--7-7-7--2-2-2--------------|
D|-2-2-2--0-0-0--7-7-7--2-2-2--------------| 
G|-2-2-2---------7-7-7--2-2-2-----2-5-2-5--|
D|--------5-5-5---------------2-5----------|

e|--------3-3-3-----------------|
B|-2-2-2--0-0-0--7-7-7--2-2-2---|
G|-2-2-2--0-0-0--7-7-7--2-2-2---|
D|-2-2-2--0-0-0--7-7-7--2-2-2---| 
G|-2-2-2---------7-7-7--2-2-2---|
D|--------5-5-5-----------------|


interlude
e|---------------------|
B|---------------------|
G|---------------------|
D|---------------------| x3
G|--6-6--6-6-7-8-9-----|
D|--4-4--4-4-5-6-7-----|

e|-------3-3-----------|
B|-------0-0-----------|
G|-------0-0-----------|
D|-------0-0-----------|
G|--6-6--0-0--4-4-4----|
D|--4-4--5-5--2-2-2----|


verse 2 same as first
solo follows verse chords

Related for Dear Mr Fantasy tab