Guitaretab - guitar tabs
Song name
# A B C D E F G H I J K L M N O P Q R S T U V W X Y Z

Bigwig - Thirteen tab

----------------------------------------------------------------------------
			     Thirteen - Bigwig
----------------------------------------------------------------------------
Tabbed by: Jesse Benedick
Email: JBMetal311@Yahoo.com

Tuning: Standard
[ Tab from: http://www.guitaretab.com/b/bigwig/130765.html ]
e|---------|---------------------------------------------------------------|
B|--666-5--|---------------------------------------------------------------|
G|--555-5--|---------------------------------------------------------------|
D|---------|--3------------------------------------------3-----------------|
A|---------|--3----33333333333--------------000000000000-3-----------------|
E|---------|-\1----------------333333333333--------------1-----------------|
Repeat 6x
e|-------------------------|----------------------|---------------|--------|
B|-------------------------|----------------------|---------------|--------|
G|-------------------------|----------------------|---------------|--------|
D|------555-33-222-000-22--|--333-222-33-5555555--|----5-3-2-0-2--|--------|
A|--333--------------------|----------------------|--3------------|--------|
E|-------------------------|----------------------|---------------|--------|
Repeat 3x (Riff 1)          1x (Riff 2)            3x             riff 2
e|--777-------777-------777-----------7----|-------------------------------|
B|------77777-----77777-----77777---7---7--|-------------------------------|
G|--------------------------------7--------|-------------------------------|
D|-----------------------------------------|-------------------------------|
A|-----------------------------------------|-------------------------------|
E|-----------------------------------------|-------------------------------|
Harmonic Part                               (Riff 1 1x + Riff 2 1x)
e|----------------------|--------------------------------|
B|----------------------|---------------5/8-6-5---5-6-5--|
G|--5---------7---------|--5---------7----------7--------|
D|--5----7----7----5----|--5----7----7-------------------|
A|--3----7----5----5----|--3----7----5-------------------|
E|-------5---------3----|-------5------------------------|
 3x
e|----------------------|-------------------------------------|
B|----------------------|-------------------------------------|
G|--5---------2---------|--5---7---10-9--5---10-9-10---12-----|
D|--5----5----2----3----|--x---x---x--x--x---x--x-x----x------|
A|--3----5----0----3----|--3---5---8--7--3---8--7-8----10-----|
E|-------3---------1----|-------------------------------------|
Guitar 1 Chorus
e|----------------------------|--------------------|-----------------------|
B|----------------------------|--------------------|--5/8-6-5---5-6--------|
G|--------5----7----9---------|--------------------|----------7-----5~-----|
D|---3----5----7----9----3----|--3/5-3-2-0-2-3-----|-----------------------|
A|---3----3----5----7----3----|----------------5~--|-----------------------|
E|--\1-------------------1----|--------------------|-----------------------|
Breakdown                     End Harmony (Guitar 1)  (Guitar 2)


| /  slide up
| \  slide down
| h  hammer-on
| p  pull-off
| ~  vibrato
| +  harmonic
| x  Mute note
============================================================================
Related for Thirteen tab
Thirteen chords by Bigwig