Song name
# A B C D E F G H I J K L M N O P Q R S T U V W X Y Z

Bigwig - Carnivore tab

Help us improve GuitareTab! Take a short survey!
-------------------------------------------------------------------------------
			   CARNIVORE - BigWig - UnMerry Melodies
-------------------------------------------------------------------------------

Tabbed By : Eman64
e-mail: emmett@webeok.org

Tuning: normal

Note: The Lyrics I have posted don't line up with the tabs

G|-----------------------|
D|-----------------------|
A|-----------------------|
E|--0-333---0-333---0-333|


G|---------------------------------------------------|
D|---------------------------------------------------|
A|-----66----55----66----85----66----88-55555555-5310|
E|--33----66----33----66----33----66-----------------|

I eat turkey, I eat met, I ate your mom, I eat meat, I ate your dad, I eat meat
G|-------------------------------------------------------------------|
D|-------------------------------------------------------------------|
A|----------666-333---------666-333---------333-666-11111111-00000000|
E|--333-666---------333-666---------333-666--------------------------|

I eat chopped meat, I eat meat, I eat raw flesh, I eat meat, I ate your dog, I eat meat
G|---------------------------------------------------|
D|---------------------------------------------------|
A|-----66----55----66----85----66----88-55555555-5310|
E|--33----66----33----66----33----66-----------------|


G|-----------------------|
D|-----------------------|
A|-----------------------|
E|--0-333---0-333---0-333|

I eat a vegan every day, Taco Bell, Micky D's, B.K., I eat a vegan once a day
G|---------------------------------------------------|
D|---------------------------------------------------|
A|-----66----55----66----85----66----88-55555555-5310|
E|--33----66----33----66----33----66-----------------|

I eat raw meat, I eat meat, I eat skin with hair, I eat meat, I ate your mom, I eat meat
G|-------------------------------------------------------------------|
D|-------------------------------------------------------------------|
A|----------666-333---------666-333---------333-666-11111111-00000000|
E|--333-666---------333-666---------333-666--------------------------|

I eat chopped meat, I eat meat, I eat raw flesh, I eat meat, I ate your dog, I eat meat
G|---------------------------------------------------|
D|---------------------------------------------------|
A|-----66----55----66----85----66----88-55555555-5310|
E|--33----66----33----66----33----66-----------------|


G|-----------------------|
D|-----------------------|
A|-----------------------|
E|--0-333---0-333---0-333|


G|---------------------------------------------------------|***
D|---------------------------------------------------------|
A|--------66----55-------66----85----66----88-55555555-5310|
E|--10-10----66----10-10----66----33----66-----------------|

I eat raw meat, I eat meat, I eat skin with hair, I eat meat, I ate your mom, I eat meat
G|-------------------------------------------------------------------|
D|-------------------------------------------------------------------|
A|----------666-333---------666-333---------333-666-11111111-00000000|
E|--333-666---------333-666---------333-666--------------------------|

A.B.C.D.E.F.G.H.I.J.K.L.M.N.O.P.Q.R.S.T.U.V.W.X
M.E.A.T.
G|---------------------------------------------------|
D|---------------------------------------------------|
A|-----66----55----66----85----66----88-55555555-5310|
E|--33----66----33----66----33----66-----------------|


G|-----------------------|
D|-----------------------|
A|-----------------------|
E|--0-333---0-333---0-333|

Once you get the rhyhthm down it's pretty simple. This is a great song to start learning 
to pick fast with your fingers on a bass.

If you think there is something wrong with this tab send me a email with your name it 
comment/correction

***On this the 10s should be played at the normal rate

===============================================================================
Related for Carnivore tab