Song name
# A B C D E F G H I J K L M N O P Q R S T U V W X Y Z

Bijelo Dugme - Sta Ima Novo tab

I've searched for this little tab, but I just couldn’t find it, so I decided to write my 
version of this song.
It's easy to play and I hope that someone will find it useful.


E|-------6-6-----------------6-6-------------------|
B|----5-5---6-5-6-5---5h6p5-5---5h6p5-5------------|
G|-----------------5-5-----------------------------|
D|-------------------------------------------------|
A|-------------------------------------------------|
E|-------------------------------------------------|

E|--------6-6--------------------------------------|
B|-5h6p5-5---6-5-6-5----5-5-5-5-5h6h7-8-6-8-7-5----|
G|------------------5-5----------------------------|
D|-------------------------------------------------|
A|-------------------------------------------------|
E|-------------------------------------------------|

E|-----------------------------|-------------------|
B|----5-5-5-5-8--5-5-5-5-5-5-8-|----5-6-7-8-9--9-9-|
G|-----------------------------|-------------------|
D|-----------------------------|-------------------|
A|-----------------------------|-------------------|
E|-----------------------------|-------------------|
Tap to rate this tab
# A B C D E F G H I J K L M N O P Q R S T U V W X Y Z