Song name
# A B C D E F G H I J K L M N O P Q R S T U V W X Y Z

Bill Bailey - Starsky Hutch tab

This is a tab for this video: http://youtube.com/watch?v=u_HyS94O2h0

I've got most of it, except for the first 'Huggy Bear' music. Enjoy!

(Wah throughout)

'Sitting in Car' Theme

e|-----------|
B|-----------|
G|-10~---9~--|
D|-10~---9~--|
A|-10~---9~--|
E|-----------|

'Huggy' Theme

e|---------------------------------------------------|
B|---------------------------------------------------|
G|---------------------------0----0h2-0--------------|
D|-------------------0-1--2b----2-------0h2p0--------|
A|-------0-3-x-3-5-x--------------------------3--0---|
E|-3-5-x---------------------------------------------|

'Club' Theme

e|--4/5-x-5-x-5-5-x-5-5--|
B|--4/5-x-5-x-5-5-x-5-5--|
G|--4/5-x-5-x-5-5-x-5-5--| etc.
D|-----------------------|
A|-----------------------|
E|-----------------------|


'Bad Guy' Theme 

e|--------------4~--|
B|-----1~-----------|
G|---------2~-------|
D|------------------|
A|--0~--------------|
E|------------------|

'Running'

e|--------------------------|----|-------|
B|--------------------------|----|-------|
G|--1h2-2-2-2-2-1h2-2-2-2-2-|-x4-|-------|
D|--------------------------|----|-------|
A|--------------------------|----|-------|
E|--------------------------|----|--2--3-|

'Getaway' Theme


e|----------|
B|-4/5-xxxx-|
G|-4/5-xxxx-|x However many
D|-4/5-xxxx-|
A|----------|
E|----------|


...and that's about it
Tap to rate this tab
# A B C D E F G H I J K L M N O P Q R S T U V W X Y Z