Song name
# A B C D E F G H I J K L M N O P Q R S T U V W X Y Z

Billy Idol - Dancing With Myself tab

Artist: Billy Idol
Song: Dancing With Myself
Album: Kiss Me Deadly
Year: 1981
----------------------------------------------------------------------------
Standard tuning (EADGBe)


Main riff    
e|----------------------------------------|
B|----------------------------------------|
G|----9-9-9-9-8-8-9-11-11-11-9-9-9-9-9-9--|
D|----------------------------------------|
A|----------------------------------------|
E|----------------------------------------|

Chorus riff         Bridge riff                      
e|-----------------|------------------------------------------|------------|
B|-----------------|------------------------------12-12-12-12-|12-12s14s12-|
G|-----------------|----------9-9-9-9-11-11-11-11-------------|------------|
D|--9--------------|--9-9-9-9---------------------------------|------------|
A|--7---7---9---7--|------------------------------------------|------------|
E|------5---7---5--|------------------------------------------|------------|
     

Note:
s-slide
                                                                                       



(mirkoprislin@yahoo.com)
Tap to rate this tab
 
# A B C D E F G H I J K L M N O P Q R S T U V W X Y Z