Song name
# A B C D E F G H I J K L M N O P Q R S T U V W X Y Z

Billy Joel - Piano Man tab

-------------------------------------------------------------------------------
			     Piano Man - Billy Joel
-------------------------------------------------------------------------------
Tabbed by:Brody

  Chorus and Verses (before AND after interlude):
e|---------------------------------------------------------------------------------|
B|---------------------------------------------------------------------------------|
G|---------------------------------------------------------------------------------|
D|-5-5-5-5-3-2-3-2------------------------5-5-5-5-3-2-3-2-----------------3-2------|
A|-----------------3----3-3-3-3--3/5-5--------------------3----3-3-3--3-5-----5-3--|
E|---------------------------------------------------------------------------------|

  Harmonica interlude:
e|------------------------------------------------|
B|------------------------------------------------|
G|------------------------------------------------|
D|--3/5-5-5-5-5-3-2-3-2-----------------3-2-------|
A|----------------------2----3-3-3--3-5-----5-3---|
E|------------------------------------------------|
Tap to rate this tab
# A B C D E F G H I J K L M N O P Q R S T U V W X Y Z