Song name
# A B C D E F G H I J K L M N O P Q R S T U V W X Y Z

Billy Talent - Perfect World tab

Artist: Billy Talent
Song: Perfect World
Tabbed by: Zuka (zuka4077@hotmail.com)

Very good song. Has the classic BT arpeggios. Drop D tuning. Note that on the
verse you'll want to let almost every note ring.
**Edited July 9***-> Thanks to the_bear_shark for the tweak on the chorus. 
                     I also fixed the verse and interlude.
**Edited June 14***-> Well, there seems to be lots of attention towards 
                      Perfect World, so I'll clean it up again. Thanks for 
                      the comments, guys. :D I know its been a year...
Intro:

e|-0-0-0-0-0-0-0-0-|
B|-----------------|
G|-----------------|  X4
D|-----------------| 
A|-----------------|
D|-----------------|

e|-----0-0-0-0-0-0---0-0-0-0-0-0-------0-0-0-0-0-0---0-0-0-0-0-0--|
B|----------------------------------------------------------------|
G|----------------------------------------------------------------|  X1
D|-2-2-------------5-------------10-10-------------7--------------| 
A|-2-2-------------5-------------10-10-------------7--------------|
D|-2-2-------------5-------------10-10-------------7--------------|

e|-----0-0-0-0-0-0---0-0-0-0-0-0-------0-0-0-0-0-0--5--|
B|--------------------------------------------------7--|
G|--------------------------------------------------7--|
D|-2-2-------------5-------------10-10--------------5--|
A|-2-2-------------5-------------10-10--------------5--|
D|-2-2-------------5-------------10-10--------------5--|

Verse:

e|----------------------------------|
B|-----0-----------0-----2-----3----|
G|-4-----2---0---2---4-4---4-4---0--| X2
D|---5-----5---5--------------------|
A|----------------------------------|
D|----------------------------------|

e|-----0---0------------------------|
B|-5-5---7---7-5-0--1-----3---3-1-0-|
G|--------------------5-5---5-------| X1
D|----------------------------------|
A|----------------------------------|
D|----------------------------------|

e|--7----7----|  
B|--8----7----| X2
G|--7----7----| 
D|--9----9----| 
A|--10---9----|
D|------------|

e|-----0---0------------------------|
B|-5-5---7---7-5-0--1-----3---3-1-0-|
G|--------------------5-5---5-------| X2
D|----------------------------------|
A|----------------------------------|
D|----------------------------------|

Chorus: 
e|-------------------------------------------------------------------------|
B|-------------------------------------------------------------------------|
G|-------------------------------------------------------------------------|
D|-2-2-2-2-2-2-2-2-5-5-5-5-5-5-5-5-10-10-10-10-10-10-10-10-7-7-7-7-7-7-7-7-|
A|-2-2-2-2-2-2-2-2-5-5-5-5-5-5-5-5-10-10-10-10-10-10-10-10-7-7-7-7-7-7-7-7-|
D|-2-2-2-2-2-2-2-2-5-5-5-5-5-5-5-5-10-10-10-10-10-10-10-10-7-7-7-7-7-7-7-7-|


e|-------------------------------------------------------------------------|
B|-------------------------------------------------------------------------|
G|---------------------------------------------------------7-7-7-7-7-7-7-7-|
D|-2-2-2-2-2-2-2-2-5-5-5-5-5-5-5-5-10-10-10-10-10-10-10-10-7-7-7-7-7-7-7-7-|
A|-2-2-2-2-2-2-2-2-5-5-5-5-5-5-5-5-10-10-10-10-10-10-10-10-5-5-5-5-5-5-5-5-|
D|-2-2-2-2-2-2-2-2-5-5-5-5-5-5-5-5-10-10-10-10-10-10-10-10-----------------|


(Repeat Verse, then Chorus 4 times)

Interlude:

e|-------------------33-3333-----------------------------------------------|
B|-88-8888--33-33-3--55-5555-----------33-3333-----------77-7777--66-------|
G|-99-9999--44-44-4--55-5555-----------44-4444-----------77-7777--77-------|
D|-99-9999--44-44-4--55-5555--55-55-5--44-4444--22-22-2--77-7777--77x05750-|
A|-77-7777--22-22-2--33-3333--55-55-5--22-2222--22-22-2--55-5555--55x05750-|
D|----------------------------55-55-5-----------22-22-2-------------x05750-|
 (Interlude is played 3 times)

Then...
 
e|-----0-0-0-0-0-0---0-0-0-0-0-0-------0-0-0-0-0-0---0-0-0-0-0-0--|
B|----------------------------------------------------------------|
G|----------------------------------------------------------------|  X2
D|-2-2-------------5-------------10-10-------------7--------------| 
A|-2-2-------------5-------------10-10-------------7--------------|
D|-2-2-------------5-------------10-10-------------7--------------|

e|-----0-0-0-0-0-0---0-0-0-0-0-0-------0-0-0-0-0-0--5--|
B|--------------------------------------------------7--|
G|--------------------------------------------------7--|
D|-2-2-------------5-------------10-10--------------5--|
A|-2-2-------------5-------------10-10--------------5--|
D|-2-2-------------5-------------10-10--------------5--|

(The chorus is then played 4 times)

Chorus (4th time)
e|--------------------------------------------------------------------|
B|--------------------------------------------------------------------|
G|--------------------------------------------------------------------|
D|-2-2-2-2-2-2-2-2-5-5-5-5-5-5-5-5-10-10-10-10-10-10-10-10-0--0--0--0-|
A|-2-2-2-2-2-2-2-2-5-5-5-5-5-5-5-5-10-10-10-10-10-10-10-10-0--0--0--0-|
D|-2-2-2-2-2-2-2-2-5-5-5-5-5-5-5-5-10-10-10-10-10-10-10-10-0--0--0--0-|

No Legend needed, really. If you find any mistakes feel free to post comments/corrections. Enjoy!
Tap to rate this tab
# A B C D E F G H I J K L M N O P Q R S T U V W X Y Z