Song name
# A B C D E F G H I J K L M N O P Q R S T U V W X Y Z

Billy Talent - Rusted From The Rain tab

-------------------------------------------------------------------------------
			  Rusted From The Rain-Billy Talent
-------------------------------------------------------------------------------
Tabbed by:brokenunder
Email:tears--dont--fall@hotmail.co.uk

Tuning: Drop D

this should all be right  comment and rate :)

Intro

e|---------------------------------------------------------------------------|
B|-----5------5-------5------------------------------------------------------|
G|---4--4----6-6-----4-4---------------------------X3------------------------|
D|-2--------0-----------------0-0--0-0-2-------------------------------------|
A|------------------3---------9-10-9-5---------------------------------------|
E|---------------------------------------------------------------------------|

Prechorus

e|-----0------0--------0------0----------------------------------------------|
B|-----5------5--------5------5----------------------------------------------|
G|---4--4----4-4------4-4----4-4---------------------------------------------|
D|-------------------0------0------------------------------------------------|
A|-3--------3----------------------------------------------------------------|
E|---------------------------------------------------------------------------|

then when the bass and drums come in the guitar just plays the first part of the intro again

Verse

e|---------------------------------------------------------------------------|
B|-5------5------------5-------5--------5------------------------------------|
G|-4------4----------4--4-----6-6-----4--4-----------------------------------|
D|-2------2--------2---------0-----------------------------------------------|
A|-----------------------------------3---------------------------------------|
E|---------------------------------------------------------------------------|

Prechorus

Chorus

e|---------------------------------------------------------------------------|
B|-------------------------------------5--------5----------------------------|
G|-------------------------------------4--X16---5--X16-----------------------|
D|--22-757955-45402--------------------2--------2----------------------------|
A|--22-757955-45402----X3----------------------------------------------------|
E|--22-757955-45402----------------------------------------------------------|

Intro

Verse

Chorus

e|---------------------------------------------------------------------------|
B|-------------------------------------5--------5--------5-------5-----------|
G|-------------------------------------4--X16---5--X16---4--16X--5-----------|
D|--22-757955-45402--------------------2--------2--------2-------2-----------|
A|--22-757955-45402----X3----------------------------------------------------|
E|--22-757955-45402----------------------------------------------------------|

Solo

e|---------------------------------------------------------------------------|
B|------------5-3------------------------------------------------------------|
G|---0-2-4-------5-4542420-----0245424-0------0245424-4---X2-----------------|
D|-2-----------------------2-4-------------2-4-------------------------------|
A|---------------------------------------------------------------------------|
E|---------------------------------------------------------------------------|

e|---------------------------------------------------------------------------|
B|-3303-5505-7707-530-X4-3303-5505-7707-8808-1010010----X4-------------------|
G|---------------------------------------------------------------------------|
D|---------------------------------------------------------------------------|
A|---------------------------------------------------------------------------|
E|---------------------------------------------------------------------------|

e|-----------------------------------------------------------------------------|
B|-1212012-1313013-1515015-17~-------------------------------------------------|
G|-----------------------------------------------------------------------------|
D|-----------------------------------------------------------------------------|
A|-----------------------------------------------------------------------------|
E|-----------------------------------------------------------------------------|

Chorus

Outro guitar bits
e|-----------------------------------------------------------------------------|
B|-----------------------------------------------------------------------------|
G|-----------------------------------------------------------------------------|
D|-------------------------then-------2~-2h4p0h2-------------------------------|
A|---7~-5~-4~-3~-2~------------------------------------------------------------|
E|-----------------------------------------------------------------------------|

ends on

e|---------------------------------------------------------------------------|
B|---------------------------------------------------------------------------|
G|-----0-2-4----9~-----------------------------------------------------------|
D|---2----------9~-----------------------------------------------------------|
A|--------------7~-----------------------------------------------------------|
E|---------------------------------------------------------------------------|

| /  slide up
| \  slide down
| h  hammer-on
| p  pull-off
| ~  vibrato
| +  harmonic
| x  Mute note
===================================================
Tap to rate this tab
# A B C D E F G H I J K L M N O P Q R S T U V W X Y Z