Song name
# A B C D E F G H I J K L M N O P Q R S T U V W X Y Z

Billy Talent - Saint Veronika tab

-------------------------------------------------------------------
SAINT VERONIKA - Billy Talent - Billy Talent III
-------------------------------------------------------------------
Tabbed by: Jc447
Email: tootman.203@gmail.com

Tuning: Drop D
Crotchet = 200

First 2 times with stacato distortion.
Second 2 times with heavy distortion only.

e|-----------------------------------------------------------------|   \
B|-----------------------------------------------------------------|   |
G|-----------------------------------------------------------------|   |
D|-----------------------------------------------------5-7-5-------|   |
A|---------------------------------0-0-7-0-8-0-5-0-7-0-------8-7-8-|   |
D|-0-0-7-0-8-0-5-0-7-0-3-0-5-3-2-3---------------------------------|   |
                                                                       |  x4
e|-----------------------------------------------------------------|   |
B|-----------------------------------------------------------------|   |
G|-----------------------------------------------------------------|   |
D|-----------------------------------------------------------------|   |
A|-----7---8---5---7-----------------------------------------------|   |
D|-5-5---5---5---5---5-10-5-8-7-5-7-3-3-3-3-3-3-5-3-2-2-2-2-2-2-3-2|   /
Tap to rate this tab
 
# A B C D E F G H I J K L M N O P Q R S T U V W X Y Z