Guitaretab - guitar tabs
Song name
# A B C D E F G H I J K L M N O P Q R S T U V W X Y Z

Billy Talent - Saint Veronika tab

Artist: Billy Talent
Track: Saint Veronika
Album: III
Tuning: Drop D [D-A-D-G-B-e]



Intro (x4)
e|-------------------------------------------------------------------|
B|-------------------------------------------------------------------|
G|-------------------------------------------------------------------|
D|-----------------------------------------------------------7-----7-|
A|---------5-----5---------5-----5---------10-----10-----------------|
D|-0-0-0-0---0-0---3-3-3-3---3-3---8-8-8-8----8-8----5-5-5-5---5-5---|


Verse
e|-----------------------------------------------------------------|
B|-----------------------------------------------------------------|
G|-----------------------------------------------------------------|
D|-----------------------------------------------------------------|
A|-----------------------------------------------------------------|
D|-0-0-0-0-0-0-0-0-0-0-0-0-3-3-5-5-7-7-7-7-7-7-7-7-7-7-7-7-7-7-7-7-|

e|-----------------------------------------------------------------|
B|-----------------------------------------------------------------|
G|-----------------------------------------------------------------|
D|-----------------------------------------------------------------|
A|-----------------------------------------------------------------|
D|-5-5-5-5-5-5-5-5-5-5-5-5-5-5-5-5-3-3-3-3-3-3-3-3-7-7-7-7-7-7-7-7-|

e|-----------------------------------------------------------------|
B|-----------------------------------------------------------------|
G|-----------------------------------------------------------------|
D|-----------------------------------------------------------------|
A|-----------------------------------------------------------------|
D|-0-0-0-0-0-0-0-0-0-0-0-0-3-3-5-5-7-7-7-7-7-7-7-7-7-7-7-7-7-7-7-7-|

e|-----------------------------------------------------------------|
B|-----------------------------------------------------------------|
G|-----------------------------------------------------------------|
D|-------------------------------------------------7---7---7-7-7-7-|
A|-------------------------------------------------7---7---7-7-7-7-|
D|-5-5-5-5-5-5-5-5-5-5-5-5-5-5-5-5-3-3-3-3-3-3-3-3-7---7---7-7-7-7-|


Chorus (x2)
e|-----------------0-0-0-0-1-1-1-1---------------------------------|
B|-3-3-3-3-3-3-3-3-2-2-2-2-2-2-2-2---------------------------------|
G|-3-3-3-3-3-3-3-3-0-0-0-0-0-0-0-0---------------------------------|
D|-3-3-3-3-3-3-3-3-2-2-2-2-2-2-2-2-8-8-8-8-8-8-8-8-7-7-7-7-7-7-7-7-|
A|-1-1-1-1-1-1-1-1-0-0-0-0-0-0-0-0-5-5-5-5-5-5-5-5-3-3-3-3-3-3-3-3-|
D|---------------------------------5-5-5-5-5-5-5-5-3-3-3-3-3-3-3-3-|

e|-0-0-0-0-1-0-0-0-----------------------------------------10-10-10-10-|
B|-2-2-2-2-2-2-2-2-5-5-5-5-5-5-5-5-6---6---6---6---8-8-8---10-10-10-10-|
G|-2-2-2-2-2-2-2-2-6-6-6-6-6-6-6-6-7---7---7---7---x-x-x---x--x--x--x--|
D|-2-2-2-2-2-2-2-2-7-7-7-7-7-7-7-7-0---0---0---0---8-8-8---7--7--7--7--|
A|-0-0-0-0-0-0-0-0-4-4-4-4-4-4-4-4-0---0---0---0---7-7-7---8--8--8--8--|
D|---------------------------------0---0---0---0-----------------------|


Break
e|-------------------------------------------------------------------|
B|-------------------------------------------------------------------|
G|-------------------------------------------------------------------|
D|-----------------------------------------------------------7-----7-|
A|---------5-----5---------5-----5---------10-----10-----------------|
D|-0-0-0-0---0-0---3-3-3-3---3-3---8-8-8-8----8-8----5-5-5-5---5-5---|


Verse
e|-----------------------------------------------------------------|
B|-----------------------------------------------------------------|
G|-----------------------------------------------------------------|
D|-----------------------------------------------------------------|
A|-----------------------------------------------------------------|
D|-0-0-0-0-0-0-0-0-0-0-0-0-3-3-5-5-7-7-7-7-7-7-7-7-7-7-7-7-7-7-7-7-|\
								     \
e|-----------------------------------------------------------------|  \
B|-----------------------------------------------------------------|   \
G|-----------------------------------------------------------------|    \
D|-----------------------------------------------------------------|     x3
A|-----------------------------------------------------------------|    /
D|-5-5-5-5-5-5-5-5-5-5-5-5-5-5-5-5-3-3-3-3-3-3-3-3-7-7-7-7-7-7-7-7-|   /
								      /
e|-----------------------------------------------------------------| /
B|-----------------------------------------------------------------|/
G|-----------------------------------------------------------------|
D|-----------------------------------------------------------------|
A|-----------------------------------------------------------------|
D|-0-0-0-0-0-0-0-0-0-0-0-0-3-3-5-5-7-7-7-7-7-7-7-7-7-7-7-7-7-7-7-7-|

e|-----------------------------------------------------------------|
B|-----------------------------------------------------------------|
G|-----------------------------------------------------------------|
D|-----------------------------------------------------------------|
A|-----------------------------------------------------------------|
D|-0-0-0-0-0-0-0-0-0-0-0-0-3-3-5-5-7-7-7-7-7-7-7-7-7-7-7-7-7-7-7-7-|

e|-----------------------------------------------------------------|
B|-----------------------------------------------------------------|
G|-----------------------------------------------------------------|
D|-------------------------------------------------7---7---7-7-7-7-|
A|-------------------------------------------------7---7---7-7-7-7-|
D|-5-5-5-5-5-5-5-5-5-5-5-5-5-5-5-5-3-3-3-3-3-3-3-3-7---7---7-7-7-7-|


Chorus
e|-----------------0-0-0-0-1-1-1-1---------------------------------|
B|-3-3-3-3-3-3-3-3-2-2-2-2-2-2-2-2---------------------------------|
G|-3-3-3-3-3-3-3-3-0-0-0-0-0-0-0-0---------------------------------|
D|-3-3-3-3-3-3-3-3-2-2-2-2-2-2-2-2-8-8-8-8-8-8-8-8-7-7-7-7-7-7-7-7-|
A|-1-1-1-1-1-1-1-1-0-0-0-0-0-0-0-0-5-5-5-5-5-5-5-5-3-3-3-3-3-3-3-3-|
D|---------------------------------5-5-5-5-5-5-5-5-3-3-3-3-3-3-3-3-|

e|-0-0-0-0-1-0-0-0-----------------------------------------10-10-10-10-|
B|-2-2-2-2-2-2-2-2-5-5-5-5-5-5-5-5-6---6---6---6---8-8-8---10-10-10-10-|
G|-2-2-2-2-2-2-2-2-6-6-6-6-6-6-6-6-7---7---7---7---x-x-x---x--x--x--x--|
D|-2-2-2-2-2-2-2-2-7-7-7-7-7-7-7-7-0---0---0---0---8-8-8---7--7--7--7--|
A|-0-0-0-0-0-0-0-0-4-4-4-4-4-4-4-4-0---0---0---0---7-7-7---8--8--8--8--|
D|---------------------------------0---0---0---0-----------------------|

e|-10-10-10-10-10-10-10-10-10-10-10-10-10-10-10-10-6-6-6-6-6-6-6-6-5-5-5-5-5-5-5-5-|
B|-x--x--x--x--x--x--x--x--x--x--x--x--x--x--x--x--5-5-5-5-5-5-5-5-5-5-5-5-5-5-5-5-|
G|-12-12-12-12-12-12-12-12-10-10-10-10-10-10-10-10-x-x-x-x-x-x-x-x-x-x-x-x-x-x-x-x-|
D|-8--8--8--8--8--8--8--8--7--7--7--7--7--7--7--7--5-5-5-5-5-5-5-5-3-3-3-3-3-3-3-3-|
A|-8--8--8--8--8--8--8--8--7--7--7--7--7--7--7--7--5-5-5-5-5-5-5-5-3-3-3-3-3-3-3-3-|
D|-8--8--8--8--8--8--8--8--7--7--7--7--7--7--7--7--5-5-5-5-5-5-5-5-3-3-3-3-3-3-3-3-|
[ Tab from: http://www.guitaretab.com/b/billy-talent/191780.html ]
e|-0-0-0-0-1-0-0-0-----------------------------------------10-10-10-10-|
B|-2-2-2-2-2-2-2-2-5-5-5-5-5-5-5-5-6---6---6---6---8-8-8---10-10-10-10-|
G|-2-2-2-2-2-2-2-2-6-6-6-6-6-6-6-6-7---7---7---7---x-x-x---x--x--x--x--|
D|-2-2-2-2-2-2-2-2-7-7-7-7-7-7-7-7-0---0---0---0---8-8-8---7--7--7--7--|
A|-0-0-0-0-0-0-0-0-4-4-4-4-4-4-4-4-0---0---0---0---7-7-7---8--8--8--8--|
D|---------------------------------0---0---0---0-----------------------|


Bridge
e|-----------------------------------------------------------------|
B|-----------------------------------------------------------------|
G|-----------------------------------------------------------------|
D|-----------------------------------------------------5-7-5-------|
A|---------------------------------0-0-7p0-8p0-5p0-7p0-------8-7-8-|\
D|-0-0-7p0-8p0-5p0-7p0-3p0-5-3-2-3---------------------------------| \
								      x2
e|-----------------------------------------------------------------| /
B|-----------------------------------------------------------------|/
G|-----------------------------------------------------------------|
D|-----------------------------------------------------------------|
A|-----7p0-8p0-5p0-7p0-3p0-1p0---0---------------------------------|
D|-5-5-------------------------5---3-3-3-3-3-3-5-3-2-2-2-2-2-2-3-2-|

e|-----------------------------------------------------------------|
B|-----------------------------------------------------------------|
G|-----------------------------------------------------------------|
D|-----------------------------------------------------5-7-5-------|
A|---------------------------------0-0-7p0-8p0-5p0-7p0-------8-7-8-|\
D|-0-0-7p0-8p0-5p0-7p0-3p0-5-3-2-3---------------------------------| \
								      x2
e|-----------------------------------------------------------------| /
B|-----------------------------------------------------------------|/
G|-----------------------------------------------------------------|
D|---------------------------------3---3-3-3-------5---5---5-------|
A|-----7p0-8p0-5p0-7p0-3p0-1p0---0-3---3-3-3-------3---3---3-------|
D|-5-5-------------------------5---3---3-3-3---5-3-2---2---2---\14-|


e|-----------------------------------------------------------------|
B|-----------------------------------------------------------------|
G|-----------------------------------------------------------------|
D|-0-------------------------------11------------------------------|
A|-0-------------------------------7-------------------------------|\
D|-0-------------------------------7-------------------------------| \
								      x2
e|-----------------------------------------------------------------| /
B|-----------------------------------------------------------------|/
G|-----------------------------------------------------------------|
D|-8-------7-------5---5-------5---7---7---5---3---5---5---3---2---|
A|-5-------5-------5---5---8-------3---3---3---3---3---3---3---2---|
D|-5-------5-------5---5-----------3---3---3---3---2---2---3---2---|

e|-----------------------------------------------------------------|
B|---------------------------------2-------2-----2-2---2---2-2-----|
G|---------------------------------2-------2-----2-2---2---2-2-----|
D|---------------------------------2-------2-----2-2---2---2-2-----|
A|---------------------------------0-------0-----0-0---0---0-0-----|\
D|-0-0-7p0-8p0-5p0-7p0-3p0-5-3-2-3---------------------------------| \
								      x2
e|-----------------------------------------------------------------| /
B|-----------------------------------------------------------------|/
G|-----------------------------------------------------------------|
D|---------------------------------3-------3-----3-5---5---3---2---|
A|-----7p0-8p0-5p0-7p0-3p0-1p0---0-3-------3-----3-3---3---3---3---|
D|-5-5-------------------------5---3-------3-----3-2---2---2---2---|


e|----------------------------------------------------|
B|---------15-----------15-----------11----------10---|
G|-------0------------0------------0-----------0------|
D|----12-----------12-----------12----------10--------|
A|-13-----------12-----------10-----------8-----------|
D|----------------------------------------------------|

e|------------------------------------------|
B|-------5---------5---------6---8----10----|
G|-----0---------0---------0-----x----x-----|
D|---5---------5---------7-------8----7-----|
A|-0---------4---------5---------7----8-----|
D|------------------------------------------|

e|----------------------------------------------------|
B|---------15-----------15-----------11----------10---|
G|-------0------------0------------0-----------0------|
D|----12-----------12-----------12----------10--------|
A|-13-----------12-----------10-----------8-----------|
D|----------------------------------------------------|

e|--------------------------------------------------------|
B|-------5---------5---6---6---6---6---8-8-8---10-10-10---|
G|-----0---------0-----7---7---7---7---x-x-x---x--x--x----|
D|---5---------5-------0---0---0---0---8-8-8---7--7--7----|
A|-0---------4---------0---0---0---0---7-7-7---8--8--8----|
D|---------------------0---0---0---0----------------------|


Chorus
e|-----------------0-0-0-0-1-1-1-1---------------------------------|
B|-3-3-3-3-3-3-3-3-2-2-2-2-2-2-2-2---------------------------------|
G|-3-3-3-3-3-3-3-3-0-0-0-0-0-0-0-0---------------------------------|\
D|-3-3-3-3-3-3-3-3-2-2-2-2-2-2-2-2-8-8-8-8-8-8-8-8-7-7-7-7-7-7-7-7-| \
A|-1-1-1-1-1-1-1-1-0-0-0-0-0-0-0-0-5-5-5-5-5-5-5-5-3-3-3-3-3-3-3-3-|  \
D|---------------------------------5-5-5-5-5-5-5-5-3-3-3-3-3-3-3-3-|   \
									\
e|-0-0-0-0-1-0-0-0-----------------------------------------10-10-10-10-| \
B|-2-2-2-2-2-2-2-2-5-5-5-5-5-5-5-5-6---6---6---6---8-8-8---10-10-10-10-|  \
G|-2-2-2-2-2-2-2-2-6-6-6-6-6-6-6-6-7---7---7---7---x-x-x---x--x--x--x--|   x2
D|-2-2-2-2-2-2-2-2-7-7-7-7-7-7-7-7-0---0---0---0---8-8-8---7--7--7--7--|  /
A|-0-0-0-0-0-0-0-0-4-4-4-4-4-4-4-4-0---0---0---0---7-7-7---8--8--8--8--| /
D|---------------------------------0---0---0---0-----------------------|/

e|-10-10-10-10-10-10-10-10-10-10-10-10-10-10-10-10-6-6-6-6-6-6-6-6-5-5-5-5-5-5-5-5-|
B|-x--x--x--x--x--x--x--x--x--x--x--x--x--x--x--x--5-5-5-5-5-5-5-5-5-5-5-5-5-5-5-5-|
G|-12-12-12-12-12-12-12-12-10-10-10-10-10-10-10-10-x-x-x-x-x-x-x-x-x-x-x-x-x-x-x-x-|
D|-8--8--8--8--8--8--8--8--7--7--7--7--7--7--7--7--5-5-5-5-5-5-5-5-3-3-3-3-3-3-3-3-|
A|-8--8--8--8--8--8--8--8--7--7--7--7--7--7--7--7--5-5-5-5-5-5-5-5-3-3-3-3-3-3-3-3-|
D|-8--8--8--8--8--8--8--8--7--7--7--7--7--7--7--7--5-5-5-5-5-5-5-5-3-3-3-3-3-3-3-3-|

e|-0-0-0-0-1-0-0-0-----------------------------------------10-10-10-10-|
B|-2-2-2-2-2-2-2-2-5-5-5-5-5-5-5-5-6---6---6---6---8-8-8---10-10-10-10-|
G|-2-2-2-2-2-2-2-2-6-6-6-6-6-6-6-6-7---7---7---7---x-x-x---x--x--x--x--|
D|-2-2-2-2-2-2-2-2-7-7-7-7-7-7-7-7-0---0---0---0---8-8-8---7--7--7--7--|
A|-0-0-0-0-0-0-0-0-4-4-4-4-4-4-4-4-0---0---0---0---7-7-7---8--8--8--8--|
D|---------------------------------0---0---0---0-----------------------|


Outro
e|-------------------------------------------------------------------|
B|-------------------------------------------------------------------|
G|-------------------------------------------------------------------|
D|-----------------------------------------------------------7-7-7-7-|
A|---------5-----5---------5-----5---------10-----10-----------------|
D|-0-0-0-0---0-0---3-3-3-3---3-3---8-8-8-8----8-8----5-5-5-5---------|


 Copyright, foresthump
Related for Saint Veronika tab