Guitaretab - guitar tabs
Song name
# A B C D E F G H I J K L M N O P Q R S T U V W X Y Z

Billy Talent - Cut The Curtains tab

Band: Billy Talent
Song: Cut the Curtains (solo)
Album: Billy Talent
Tabbed by: James Chang
Email: jchang_180@hotmail.com

Tuning: DADGBe

To get the timing for this solo you'll have to listen to the song. The times for each part is shown.
[ Tab from: http://www.guitaretab.com/b/billy-talent/35244.html ]
h = hammer
p = pull off
/ = slide
b = bend until released
r = release bend
(#) = pick the note that you are bending
  
  2:03
e|------------------------------------------|
B|-----10-----------------------------------|
G|-9b10--(10)-r9-9-9p7---7-9b10-r9-9p7----7-|
D|---------------------7---------------10---|
A|------------------------------------------|
D|------------------------------------------|

  2:05
e|-----------------------------------|
B|--------3-------3-5-5b6-r5-5p3---3-|
G|-/2-2-----2---2----------------5---|
D|------3-----3----------------------|
A|-----------------------------------|
D|-----------------------------------|

  2:08
e|---------------------------|
B|---------------------------|
G|-5/3h2-------------------3-|
D|-------3-3-2-3-3-5-3-2-3---|
A|---------------------------|
D|---------------------------|

  2:13
e|--------------------|
B|------3---3---3-5b6-|
G|-/2-2---2---2-------|
D|--------------------|
A|--------------------|
D|--------------------|
Related for Cut The Curtains tab
Advertisement will be closed in 10 seconds