Song name
# A B C D E F G H I J K L M N O P Q R S T U V W X Y Z

Billy Talent - Pocketful Of Dreams tab

-------------------------------------------------------------------------------
			     Pocketful Of Dreams - Billy Talent
-------------------------------------------------------------------------------
Tabbed by:PT-E
Email:

Tuning:Drop D

 Intro
e|---------------------------------------------------------------------------|
B|---------------------------------------------------------------------------|
G|-3-3-3-5-3-3-3-5-3-5-3-5-3-3-3-3-2-2-2-3-2-2-2-3-2-3-5-3-2-2-2-2-----------|
D|-5-5-5-5-5-5-5-5-5-5-5-5-5-5-5-5-0-0-0-0-0-0-0-0-0-0-0-0-0-0-0-0-----------|
A|---------------------------------------------------------------------------|
D|---------------------------------------------------------------------------|
   x x x x x x x x x x x x x x x x x x x x x x x x x x x x x x x x
e|---------------------------------------------------------------------------|
B|-4-4-4-6-4-4-4-6-4-6-4-6-4-4-4-4-3-3-3-4-3-3-3-2-2-2-3-2-0-----------------|
G|-5-5-5-5-5-5-5-5-5-5-5-5-5-5-5-5-3-3-3-3-3-5-3-0-0-0-0-0-0-4---------------|
D|---------------------------------------------------------------------------|
A|---------------------------------------------------------------------------|
D|---------------------------------------------------------------------------|
   x x x x x x x x x x x x x x x x x x x x x x x x x x x x x

 Verse
e|---------------------------------------------------------------------------|
B|---------------------------------------------------------------------------|
G|---------------------------------------------------------------------------|
D|-8---------------13----------------8----------------13---------------------|
A|-5---------------10----------------5----------------10---------------------|
D|-5---------------10----------------5----------------10---------------------|

  2x
e|-------------------------10-8--------------------------------10-8----------|
B|-------10-8--------------8--8-------------10-8---------------8--8----------|
G|-------7--7-------------------------------7--7-----------------------------|
D|-8---------------13----------------8----------------13---------------------|
A|-5---------------10----------------5----------------10---------------------|
D|-5---------------10----------------5----------------10---------------------|

e|---------------------------------------------------------------------------|
B|-------10-8-10--10-10-10-10-10-7-7-7-7-7-7-7-7-8-8-8-8---10--10------------|
G|-------7--7-10--10-10-10-10-10-x-x-x-x-x-x-x-x-x-x-x-x---x---x-------------|
D|-8--8-------10--10-10-10-10-10-7-7-7-7-7-7-7-7-8-8-8-8---10--10------------|
A|-5--5-------8---8--8--8--8--8--5-5-5-5-5-5-5-5-6-6-6-6---8---8-------------|
D|-5--5----------------------------------------------------------------------|


  3x
e|------------|---------------------------------------------------------------|
B|-8--8-----8-|---------------------------------------------------------------|
G|-8--8-----7-|---------------------------------------------------------------|
D|-8--8-----8-|--8-8-8-8-8-8-8-8-0-0-0-0-0-0-0-0------------------------------|
A|-6--6-----5-|--8-8-8-8-8-8-8-8-0-0-0-0-0-0-0-0------------------------------|
D|------------|--8-8-8-8-8-8-8-8-0-0-0-0-0-0-0-0------------------------------|
		 x x x x x x     x x x x x

 Chorus
e|---------------------------------------------------------------------------|
B|---------------------------------------------------------------------------|
G|-3--5-3--5-3-5-3-5-3--3----------------------------------------------------|
D|-x--x-x--x-x-x-x-x-x--x---7--8-7--8-7-8-10-8-7--7--------------------------|
A|-5--5-5--5-5-5-5-5-5--5---0--0-0--0-0-0-0--0-0--0--------------------------|
D|-5--5-5--5-5-5-5-5-5--5---0--0-0--0-0-0-0--0-0--0--------------------------|

e|---------------------------------------------------------------------------|
B|-4--6-4--6-4-6-4-6-4-4--3-3-3-3-4-3------2-2-2-2-3-2-0---------------------|
G|-x--x-x--x-x-x-x-x-x-x--x-x-x-x-x-x-5-3--0-0-0-0-0-0-0-4-------------------|
D|-5--5-5--5-5-5-5-5-5-5--3-3-3-3-3-3-3-3--0-0-0-0-0-0-0-0-------------------|
A|-3--3-3--3-3-3-3-3-3-3--1-1-1-1-1-1-1-1--0-0-0-0-0-0-0-0-------------------|
D|---------------------------------------------------------------------------|

 Verse
e|---------------------------------------------------------------------------|
B|---------------------------------------------------------------------------|
G|---------------------------------------------------------------------------|
D|-8---------------13----------------8----------------13---------------------|
A|-5---------------10----------------5----------------10---------------------|
D|-5---------------10----------------5----------------10---------------------|

  
e|-------------------------10-8--------------------------------10-8----------|
B|-------10-8--------------8--8-------------10-8---------------8--8----------|
G|-------7--7-------------------------------7--7-----------------------------|
D|-8---------------13----------------8----------------13---------------------|
A|-5---------------10----------------5----------------10---------------------|
D|-5---------------10----------------5----------------10---------------------|

e|---------------------------------------------------------------------------|
B|-------10-8-10--10-10-10-10-10-7-7-7-7-7-7-7-7-8-8-8-8---10--10------------|
G|-------7--7-10--10-10-10-10-10-x-x-x-x-x-x-x-x-x-x-x-x---x---x-------------|
D|-8--8-------10--10-10-10-10-10-7-7-7-7-7-7-7-7-8-8-8-8---10--10------------|
A|-5--5-------8---8--8--8--8--8--5-5-5-5-5-5-5-5-6-6-6-6---8---8-------------|
D|-5--5----------------------------------------------------------------------|


  3x
e|------------|---------------------------------------------------------------|
B|-8--8-----8-|---------------------------------------------------------------|
G|-8--8-----7-|---------------------------------------------------------------|
D|-8--8-----8-|--8-8-8-8-8-8-8-8-0-0-0-0-0-0-0-0------------------------------|
A|-6--6-----5-|--8-8-8-8-8-8-8-8-0-0-0-0-0-0-0-0------------------------------|
D|------------|--8-8-8-8-8-8-8-8-0-0-0-0-0-0-0-0------------------------------|
		 x x x x x x     x x x x x

 Chorus 2x
e|---------------------------------------------------------------------------|
B|---------------------------------------------------------------------------|
G|-3--5-3--5-3-5-3-5-3--3----------------------------------------------------|
D|-x--x-x--x-x-x-x-x-x--x---7--8-7--8-7-8-10-8-7--7--------------------------|
A|-5--5-5--5-5-5-5-5-5--5---0--0-0--0-0-0-0--0-0--0--------------------------|
D|-5--5-5--5-5-5-5-5-5--5---0--0-0--0-0-0-0--0-0--0--------------------------|

e|---------------------------------------------------------------------------|
B|-4--6-4--6-4-6-4-6-4-4--3-3-3-3-4-3------2-2-2-2-3-2-0---------------------|
G|-x--x-x--x-x-x-x-x-x-x--x-x-x-x-x-x-5-3--0-0-0-0-0-0-0-4-------------------|
D|-5--5-5--5-5-5-5-5-5-5--3-3-3-3-3-3-3-3--0-0-0-0-0-0-0-0-------------------|
A|-3--3-3--3-3-3-3-3-3-3--1-1-1-1-1-1-1-1--0-0-0-0-0-0-0-0-------------------|
D|---------------------------------------------------------------------------|


 Solo
e|----------------------------------------------------------------------------------------|
B|----------------------------------------------------------------------------------------|
G|-12--14-12-------14-12-14-12-14-14b15-14-12--11-12-11-------12-11-12-11-12-12b14-12-10--|
D|-----------12--------------------------------12-------12--------------------------------|
A|--------------13-----------------------------------------12-----------------------------|
D|----------------------------------------------------------------------------------------|


e|--------------------------------------------------------------------------------------------|
B|------------------------------------------------------------------------7---7---8---10---8\-|
G|-8--10-8-------10-8-10-8-10-10b12-10-8-7-7--5h7h8-7p5-------------5-7-8---7---7---7----7-7\-|
D|-10------10----------------------------8-8------------8--7--5h7h8---------------------------|
A|------------10-------------------------------------------5----------------------------------|
D|--------------------------------------------------------------------------------------------|


  2x
e|---------------------------------------------------------------------------|
B|---------------------------------------------------------------------------|
G|-3-3-3-5-3-3-3-5-3-5-3-5-3-3-3-3-2-2-2-3-2-2-2-3-2-3-5-3-2-2-2-2-----------|
D|-5-5-5-5-5-5-5-5-5-5-5-5-5-5-5-5-0-0-0-0-0-0-0-0-0-0-0-0-0-0-0-0-----------|
A|---------------------------------------------------------------------------|
D|---------------------------------------------------------------------------|
   x x x x x x x x x x x x x x x x x x x x x x x x x x x x x x x x
e|---------------------------------------------------------------------------|
B|-4-4-4-6-4-4-4-6-4-6-4-6-4-4-4-4-3-3-3-4-3-3-3-2-2-2-3-2-0-----------------|
G|-5-5-5-5-5-5-5-5-5-5-5-5-5-5-5-5-3-3-3-3-3-5-3-0-0-0-0-0-0-4---------------|
D|---------------------------------------------------------------------------|
A|---------------------------------------------------------------------------|
D|---------------------------------------------------------------------------|
   x x x x x x x x x x x x x x x x x x x x x x x x x x x x x


Chorus 3x
e|---------------------------------------------------------------------------|
B|---------------------------------------------------------------------------|
G|-3--5-3--5-3-5-3-5-3--3----------------------------------------------------|
D|-x--x-x--x-x-x-x-x-x--x---7--8-7--8-7-8-10-8-7--7--------------------------|
A|-5--5-5--5-5-5-5-5-5--5---0--0-0--0-0-0-0--0-0--0--------------------------|
D|-5--5-5--5-5-5-5-5-5--5---0--0-0--0-0-0-0--0-0--0--------------------------|

e|---------------------------------------------------------------------------|
B|-4--6-4--6-4-6-4-6-4-4--3-3-3-3-4-3------2-2-2-2-3-2-0---------------------|
G|-x--x-x--x-x-x-x-x-x-x--x-x-x-x-x-x-5-3--0-0-0-0-0-0-0-4-------------------|
D|-5--5-5--5-5-5-5-5-5-5--3-3-3-3-3-3-3-3--0-0-0-0-0-0-0-0-------------------|
A|-3--3-3--3-3-3-3-3-3-3--1-1-1-1-1-1-1-1--0-0-0-0-0-0-0-0-------------------|
D|---------------------------------------------------------------------------|


e|---------------------------------------------------------------------------|
B|---------------------------------------------------------------------------|
G|-3-3-3-5-3-3-3-5-3-5-3-5-3\------------------------------------------------|
D|-5-5-5-5-5-5-5-5-5-5-5-5-5\------------------------------------------------|
A|---------------------------------------------------------------------------|
D|---------------------------------------------------------------------------|
   x x x x x x x x x x 




| /  slide up
| \  slide down
| h  hammer-on
| p  pull-off
| ~  vibrato
| +  harmonic
| x  Mute note
===============================================================================
Tap to rate this tab
 
# A B C D E F G H I J K L M N O P Q R S T U V W X Y Z