Song name
# A B C D E F G H I J K L M N O P Q R S T U V W X Y Z

Billy Talent - Rusted From The Rain tab

Help us improve GuitareTab! Take a short survey!
I decided to submit this because to my ear, this sounded more correct than any tab 
I could find Email me on corrections - Starkandco@hotmail.com
The only thing I'm unsure of are the chords in the chorus, open strings may not be correct
Drop D tuning

I stumble..
e|-------------------------------------------------------------------|
b|----------5-----------5---------------5----------------------------|
g|------4-----4-------6---6--------4------4--------------------------|
d|---2------------7--------------5--------------0--2--4--0-----------|
a|-------------------------------------------------------------------|
d|-------------------------------------------------------------------|    x 3

I'm rusted ..
e|-------------------------------------------------------------------|
b|----------5------------5--------------5----------------------------|
g|----------4------------4--------------4----------------------------|
d|------2------------2--------------4--------4~----------------------|
a|----3-----------3--------------5-----------5~----------------------|
d|-------------------------------------------------------------------|

__________
g|-------------------------------------------|
d|-------------------------------------------| x 2
a|-------------------------------------------|
d|-2-2-4-6-7-7-9-7-5-5-7-5-0-2-4-0-----------| - the bassline played as
 powerchords here over the main riff 

Dissect me...
e|---------------------------------------------------|
b|---------------------------------------------------|
g|---------------------------------------------------|
d|----2---------------------2---------------------2--| connects right tothe next line
a|----2---------------------2---------------------2--|
d|----2---------------------2---------------------2--|

I'm nothing...
e|-------------------------------------------------------------------|
b|----------5-----------5---------------5----------------------------|
g|------4-----4-------6---6--------4------4--------------------------|
d|---2------------7--------------5--------------0--2--4--0-----------|
a|-------------------------------------------------------------------| x1
d|-------------------------------------------------------------------|

I don't..
e|-------------------------------------------------------------------|
b|----------5------------5--------------5----------------5-----------| -this line is held 
g|----------4------------4/5\4----------4----------------4/5\4-------| for the slides
d|------2------------2--------------4----------------4---------------|
a|----3-----------3--------------5----------------5------------------|
d|-------------------------------------------------------------------|

I'm rusted..
e|------------------------------------------------------------------|
b|----------5------------5--------------0---------------------------|
g|----------4------------4/5\4----------0---------------------------|
d|------2------------2------------------4---------------------------|
a|----3-----------3---------------------5---------------------------|
d|------------------------------------------------------------------|

Go on..
e|-------------------------------------------------------------------|
b|---------------------------------------------0-------0-------------|
g|---------------------------------------------0-------0-------------|
d|-2-2-----7-5-7-9-5--5-----0-2-4-0------------2-------4-------------|
a|-2-2-----7-5-7-9-5--5-----0-2-4-0--x3--------3-------5-------------|
d|-2-2-----7-5-7-9 5--5-----0-2-4-0----------------------------------|

______________
g|-------------------------------------------|
d|-------------------------------------------|
a|-------------------------------------------|
d|-2-2-4-6-7-7-9-7-5-5-7-5-0-2-4-0-----------| x 2

You hung....
e|---------------------------------------------------|
b|---------------------------------------------------|
g|---------------------------------------------------|
d|----2---------------------2---------------------2--|
a|----2---------------------2---------------------2--|
d|----2---------------------2---------------------2--|

Shackled in...
e|-------------------------------------------------------------------|
b|----------5-----------5---------------5----------------------------|
g|------4-----4-------6---6--------4------4--------------------------|
d|---2------------7--------------5--------------0--2--4--0-----------|
a|-------------------------------------------------------------------| x1
d|-------------------------------------------------------------------|

Left here...
e|-------------------------------------------------------------------|
b|----------5------------5--------------5----------------5-----------| -this line is held 
g|----------4------------4/5\4----------4----------------4/5\4-------| for the slides
d|------2------------2--------------4----------------4---------------|
a|----3-----------3--------------5----------------5------------------|
d|-------------------------------------------------------------------|

I'm rusted..
e|------------------------------------------------------------------|
b|----------5------------5--------------0---------------------------|
g|----------4------------4/5\4----------0---------------------------|
d|------2------------2------------------4---------------------------|
a|----3-----------3---------------------5---------------------------|
d|------------------------------------------------------------------|

Go on..
e|-------------------------------------------------------------------|
b|---------------------------------------------0-------0-------------|
g|---------------------------------------------0-------0-------------|
d|-2-2-----7-5-7-9-5--5-----0-2-4-0------------2-------4-------------|
a|-2-2-----7-5-7-9-5--5-----0-2-4-0--x3--------3-------5-------------|
d|-2-2-----7-5-7-9 5--5-----0-2-4-0----------------------------------|

Solo

e|-----------|---------------------------------------------------------|
b|--------0--|--5-3----------------------------------------------------|
g|----0-2----|------5-4542420-0-----0245424-0-0-------0245424-4--------|
d|-2---------|------------------2-4--------------2-4-------------------|
a|-----------|---------------------------------------------------------| x 2
d|-----------|---------------------------------------------------------|

e|-----------------------------------------|
b|-3-3-0-3--5-5-0-5--7-7-0-7--8-7-5-3-0-3--|
g|-----------------------------------------|
d|-----------------------------------------|
a|-----------------------------------------| x 4
d|-----------------------------------------|

e|----------------------------------------------------------------------------------------|
b|-3-3-0-3--5-5-0-5--7-7-0-7--8-8-0-8--10-10-0-10--12-12-0-12--13-13-0-13--15-15-0-15--17~|
g|----------------------------------------------------------------------------------------|
d|----------------------------------------------------------------------------------------|
a|----------------------------------------------------------------------------------------|
d|----------------------------------------------------------------------------------------|

e|--------------------------------------------------------------------|
b|-1212012-1313013-1515015-17~----------------------------------------|
g|--------------------------------------------------------------------|
d|--------------------------------------------------------------------|
a|--------------------------------------------------------------------|
e|--------------------------------------------------------------------|

Go on..
e|-------------------------------------------------------------------|
b|---------------------------------------------0-------0-------------|
g|---------------------------------------------0-------0-------------|
d|-2-2-----7-5-7-9-5--5-----0-2-4-0------------2-------4-------------|
a|-2-2-----7-5-7-9-5--5-----0-2-4-0--x3--------3-------5-------------|
d|-2-2-----7-5-7-9 5--5-----0-2-4-0----------------------------------| x 

2nd time, theres a small little bit played over it goes
Come on..
e|---------------------------------------|
b|---------------------------------------|
g|---------------------------------------|
d|---------------------------------------|
a|-7-7-5-5h7p5-4-4-3-3h4p3---------------|
d|---------------------------------------|

I'm rusted..
e|-----------------------|--------------------|
b|-----------------------|-----------------0~-|
g|-----------------------|-------------0-2----|
d|-2-2-2-2-2-2-4h5p4-x-7-|-2-2-2-2-2-2--------|
a|-----------------------|--------------------|
d|-----------------------|--------------------|
Related for Rusted From The Rain tab