Song name
# A B C D E F G H I J K L M N O P Q R S T U V W X Y Z

Billy Talent - Diamond On A Landmine tab

---------------------------------------------
Billy Talent - Diamond On A Landmine (intro)
---------------------------------------------

From "Billy Talent III" (2009)
Tabbed by frenchdude

Hi all, I'm new here and I'm really fan of Billy Talent since several years ! The new 
is amazingly good and as usual, a lot of interesting guitar work by Ian D'Sa ! Bad side is 
you may know....his unique style can give headaches for tabbing ;-)

So, for my second tab here (my very first was for the song "Hold" by Living Syndication, 
short), be nice and feel free to comment, correct if necessary !

(and forgive me for the eventual english mistakes.. :-s)


Tuning : Drop D (DADGBE)

* = Palm Mute

E|---------------------------------------------------------------|
B|---------------------------------------------------------------|
G|--6---6---4---4---2---2---1---1--------------------------6-----|
D|--------------------0---0---0---0---6--6--7--7--6--4-6-7---7-6-|
A|------------------------------------4--4--4--4--4--------------|
D|----0---0---0---0-------------------4--4--4--4--4--------------|

E|---------------------------------------------------------------|
B|---------------------------------------------------------------|
G|--6---6---4---4---2---2---1---1------------------------6-------|
D|--------------------0---0---0---0---66667777666--4-6-7---7-6---|
A|------------------------------------44444444444----------------|
D|----0---0---0---0-------------------44444444444----------------|
                                      ***********
Tap to rate this tab
# A B C D E F G H I J K L M N O P Q R S T U V W X Y Z