Song name
# A B C D E F G H I J K L M N O P Q R S T U V W X Y Z

Billy Talent - Ever Fallen In Love tab

Song: Ever Fallen In Love?
Band: Billy Talent
Album: Umm, this song is either a B-side or a one-off I think? Im really not sure :/
Originally By: The Buzzcocks
Tabbed By: ultimatelefty

In my opinion this is a great cover of The Buzzcocks original. I think it's at least 90%
accurate, but feel free to comment any corrections, and please rate! Enjoy!
-ultimatelefty 

Intro:

e|-444444444444--222-444444444444--222-0---------0-0-2-0-0-----------0-0-2-0-0-|
B|-555555555555--444-555555555555--444-0---2-0-----------------2-0-------------|
G|-666666666666--444-666666666666--444-1-------1-----------1-------1-----------|
D|-666666666666--444-666666666666--444-2-2-------------------2-----------------|
A|-444444444444--222-444444444444--222-2---------------------------------------|
E|-------------------------------------0---------------------------------------|


Verse:

e|-444444444444--222-444444444444--222-0---------0-0-2-0-0-----------0-0-2-0-0-|
B|-555555555555--444-555555555555--444-0---2-0-----------------2-0-------------|
G|-666666666666--444-666666666666--444-1-------1-----------1-------1-----------|
D|-666666666666--444-666666666666--444-2-2-------------------2-----------------|
A|-444444444444--222-444444444444--222-2---------------------------------------|
E|-------------------------------------0---------------------------------------|x2


Chorus:

e|-44444444-22222222-44444444-22222222-----------------------7--------7------|
B|-55555555-44444444-55555555-44444444-----------------------7--------7------|
G|-66666666-44444444-66666666-44444444-7-777777--------------9--------9------|
D|-66666666-44444444-66666666-44444444-7-777777-7-77777777-9-9-9--9-9-9-9-99-|
A|-44444444-22222222-44444444-22222222-5-555555-7-77777777-9-7-9--9-9-7-9-99-|
E|----------------------------------------------5-55555555-7---7--7-7---7-77-|


Verse 2:

e|-444444444444--222-444444444444--222-0---------0-0-2-0-0-----------0-0-2-0-0-|
B|-555555555555--444-555555555555--444-0---2-0-----------------2-0-------------|
G|-666666666666--444-666666666666--444-1-------1-----------1-------1-----------|
D|-666666666666--444-666666666666--444-2-2-------------------2-----------------|
A|-444444444444--222-444444444444--222-2---------------------------------------|
E|-------------------------------------0---------------------------------------|x2


Chorus:

e|-44444444-22222222-44444444-22222222-----------------------7--------7------|
B|-55555555-44444444-55555555-44444444-----------------------7--------7------|
G|-66666666-44444444-66666666-44444444-7-777777--------------9--------9------|
D|-66666666-44444444-66666666-44444444-7-777777-7-77777777-9-9-9--9-9-9-9-99-|
A|-44444444-22222222-44444444-22222222-5-555555-7-77777777-9-7-9--9-9-7-9-99-|
E|----------------------------------------------5-55555555-7---7--7-7---7-77-|


Verse 3:

e|-444444444444--222-444444444444--222-0---------0-0-2-0-0-----------0-0-2-0-0-|
B|-555555555555--444-555555555555--444-0---2-0-----------------2-0-------------|
G|-666666666666--444-666666666666--444-1-------1-----------1-------1-----------|
D|-666666666666--444-666666666666--444-2-2-------------------2-----------------|
A|-444444444444--222-444444444444--222-2---------------------------------------|
E|-------------------------------------0---------------------------------------|x2


Chorus:

e|-44444444-22222222-44444444-22222222-----------------------7--------7------|
B|-55555555-44444444-55555555-44444444-----------------------7--------7------|
G|-66666666-44444444-66666666-44444444-7-777777--------------9--------9------|
D|-66666666-44444444-66666666-44444444-7-777777-7-77777777-9-9-9--9-9-9-9-99-|
A|-44444444-22222222-44444444-22222222-5-555555-7-77777777-9-7-9--9-9-7-9-99-|
E|----------------------------------------------5-55555555-7---7--7-7---7-77-|x2


Break:

e|-----------------------------------------------------------------|
B|-----------------------------------------------------------------|
G|-----------------------------------------------------------------|
D|-2-2-2-2-2-2-2-2-2-2-2-2-2-2-2-2-2-2-2-2-2-2-2-2-2-2-2-2-2-2-2-2-|
A|-2-2-2-2-2-2-2-2-2-2-2-2-2-2-2-2-2-2-2-2-2-2-2-2-2-2-2-2-2-2-2-2-|
E|-0-0-0-0-0-0-0-0-0-0-0-0-0-0-0-0-0-0-0-0-0-0-0-0-0-0-0-0-0-0-0-0-|
PM . . . . . . . . . . . . . . . . . . . . . . . . . . . . . . . .

e|-----------0-0-2-0-0-|-----------0-0-2-0-0-|-----------0-0-2-0-0-|-----------0-0-2-0-0-|
B|-----2-0-------------|-----2-0-------------|-----2-0-------------|-----2-0-------------|
G|-1-------1-----------|-1-------1-----------|-1-------1-----------|-1-------1-----------|
D|---2-----------------|---2-----------------|---2-----------------|---2-----------------|
A|---------------------|---------------------|---------------------|---------------------|
E|---------------------|---------------------|---------------------|---------------------|


Final Chorus:

e|-44444444-22222222-44444444-22222222-----------------------7--------7------|
B|-55555555-44444444-55555555-44444444-----------------------7--------7------|
G|-66666666-44444444-66666666-44444444-7-777777--------------9--------9------|
D|-66666666-44444444-66666666-44444444-7-777777-7-77777777-9-9-9--9-9-9-9-99-|
A|-44444444-22222222-44444444-22222222-5-555555-7-77777777-9-7-9--9-9-7-9-99-|
E|----------------------------------------------5-55555555-7---7--7-7---7-77-|

e|---5--------5---------------2-22222222-0----------------------0-|
B|---5--------5---------------4-44444444-0----------------------0-|
G|---7--------7---------------4-44444444-1----------------------1-|
D|-7-7-7--7-7-7-7-77-5-555555-4-44444444-2----------------------2-|
A|-7-5-7--7-7-5-7-77-5-555555-2-22222222-2----------------------2-|
E|-5---5--5-5---5-55-3-333333------------0----------------------0-|


************************************

| /   slide up
| \   slide down
| h   hammer-on
| p   pull-off
| ~   vibrato
| +   harmonic
| x   Mute note
| b   Bend
| pb  Pre-bend
| br  Bend release
| pbr Pre-bend release
| brb Bend release bend

************************************
Tap to rate this tab
 
# A B C D E F G H I J K L M N O P Q R S T U V W X Y Z