Guitaretab - guitar tabs
Song name
# A B C D E F G H I J K L M N O P Q R S T U V W X Y Z

Bing Crosby - White Christmas tab

Hey guys, this is just a little something I figured out one morning, it's my own 
interpretation based off the chords in the song.  Hope you enjoy it and if there's 
anything wrong with it, or you know a way to make it sound better, feel free to let 
me know.

Thanks,
Josh
[ Tab from: http://www.guitaretab.com/b/bing-crosby/254276.html ]
       A       A/Asus       Bm         Cm C#m       D               C#m Bm A  
e|--------------------------2-----------3--4----------------5--7-----4--2--0--------0|
b|--2-----------2h3--2-1h2--3-----3-----4--5--5--4--7--7/9-----9/10--5--3--2-----2---|
g|--2-----2-----2------2----4--4-----4--5--6--------7----------9-----6--4--2--2------|
d|--2--2-----2--2-----------4-----------5--6--------7----------------------2---------|
a|--0-----------0-----------------------------------0----------------------0---------|
E|-----------------------------------------------------------------------------------|
         A           A/A6    D             Dm     A       Asus  E    E
e|-------------------0h2--0-----------------1----------------------------------------|
b|-------2-----2-----2-------3-----3-----3--3--3--2-----2--3p2--0----0--------0------|
g|--2/4--2--2-----2--2-------2--2-----2-----2-----2--2-----2----1h2--1-----1-----2---|
d|-------2-----------2-------0--------------0-----2--------2----2----2--2-----------1|
a|-------0-------------------0--------------------0--------0----0----0---------------|
E|-----------------------------------------------------------------------------------|
       A          A/Asus      Bm          Cm C#m       D               C#m Bm A   
e|--0--------------------------2-----------3--4----------------5--7-----4--2--0------|
b|-----2-----2-----2h3--2-1h2--3-----3-----4--5--5--4--7--7/9-----9/10--5--3--2-----2|
g|-----2--2-----2--2------2----4--4-----4--5--6--------7----------9-----6--4--2--2---|
d|-----2-----------2-----------4-----------5--6--------7----------------------2------|
a|-----0-----------0-----------------------------------0----------------------0------|
E|-----------------------------------------------------------------------------------|
            A         A6     D          Dm       A    Bm     E       A
e|--0------------------2--0--2--------2--5-------------2-----0-------0---------------|
b|----------2-----0h2--2-----3-----3-----6-------2--2--3-----0-------2---------------|
g|-----2/4--2--2-------2-----2--2--------7--2/4--2-----4-----1--1h2--2--2------------|
d|----------2----------2-----0-----------7-------2-----4--4--2-------2-----2---------|
a|----------0------------------------------------0-----2-----2-------0--------0~~~~~~|
E|-----------------------------------------------------2-----0-----------------------|
Related for White Christmas tab
White Christmas chords by Bing Crosby