Song name
# A B C D E F G H I J K L M N O P Q R S T U V W X Y Z

Birdflesh - Coffinfucker tab

Tune one half step down (Eb Ab Db Gb Bb Eb)

Riff 1
|------------------------------|
|------------------------------|
|------------------------------| x4
|---4"--7"--4"--7-6-5----------|
|---2"--5"--2"--5-4-3----------|
|------------------------------|

Riff 2
|------------------------------------------|
|------------------------------------------|
|------------------------------------------| x4
|------------------------------------------|
|--2-------1--------4-3-2---2--------------|
|----3-2-0---3-2-0--------4---4-3-1--------|
     . . .   . . .  . . . . . . . .

Riff 1
Riff 2

Riff 3a
|-----------------------------|
|-----------------------------|
|-----------------------------| G1
|--4----5----4----5-----------|
|--2----3----2----3-7-6-5-----|
|-------------------5-4-3-----|
|  .    .    .    . . . .     | x2
|-----------------------------|
|-----------------------------|
|-----------------------------|
|-----------------------------| G2
|--2222-3333-2222-3-----------|
|-------------------5-4-3-----|

Riff 3b
|-----------------------------|
|-----------------------------| G1 + G2
|-----------------------------|
|-----------------------------| x4
|--2222-3333-2222-3-----------|
|-------------------5-4-3-----|

Riff 4
|-----------------------------|
|-----------------------------|
|-----------------------------|
|-----------------------------| x4
|----1"----1"-----------------|
|--2-----2------4--3----------|

Riff 3b
Riff 4
Riff 1 (slight variation on 2nd time)
Tap to rate this tab
# A B C D E F G H I J K L M N O P Q R S T U V W X Y Z