Song name
# A B C D E F G H I J K L M N O P Q R S T U V W X Y Z

Bittersweet - 1234 tab

bittersweet-1234


INTRO

    Em         Am         G           B
e|---------------------------------------------------|
B|---------------------------------------------------|
G|---------------------------------------------------|
D|--------2-2~-----2-4-4~-------2-2~-----------------|
A|------2------0-3----------2-5-------2--------------|
E|--0-3-------------------3-------------5-3-2~-------|

verse

  Em         Am         G           B
e|--7--------5----------3-----------7---|
B|--8--------5----------3-----------7---|
G|--9--------5----------4-----------8---|
D|--9--------7----------5-----------9---|
A|--7--------7----------5-----------9---|
E|--x--------5----------3-----------7---|

cara strum korang dengar slow2

bridge


  Am         B
e|--5--------7-------|
B|--5--------7-------|
G|--5--------8-------|
D|--7--------9-------|
A|--7--------9-------|
E|--5--------7-------|

chorus

  Em         Am         G           B
e|--7--------5----------3-----------7---|
B|--8--------5----------3-----------7---|
G|--9--------5----------4-----------8---|
D|--9--------7----------5-----------9---|
A|--7--------7----------5-----------9---|
E|--x--------5----------3-----------7---|


lead

aku blum dapat lagi

keiri85@gmail.com
Tap to rate this tab
 
# A B C D E F G H I J K L M N O P Q R S T U V W X Y Z