Song name
# A B C D E F G H I J K L M N O P Q R S T U V W X Y Z

Bj Thomas - Raindrops Keep Falling On My Head tab

               Raindrops Keep Falling On My Head - Bj Thomas

Eiffel - This is my first tab and I just figured it out by ear. It's missing some parts 
but it's got the basic structure. Enjoy!

|-0-0-0-1-0-----0-0---|-3-3-3-5-3-------------7-----|
|-1---------3-1-1-1---|-3-3-3----6-5-5---3----7-----|
|-2-------------------|-3-3-3--------3-5-3----7-----|
|-0-------------------|----------------4------------|
|-3-------------------|-----------------------------|
|-x-------------------|-----------------------------|


|-7-5------7--7-5----|-7--7-5------------0--0-0-1-0-|
|-----7----7------7--|-7------7-----3/7--1----------|
|-------7--7--------7|-7--------7---5/5--2----------|
|--------------------|-------------------0----------|
|--------------------|-------------------3----------|
|--------------------|-------------------x----------|


|------0-0--3-3-3-5-3|--------------7-7-5------7----|
|-3-1--1-1--3-3-3----|-6-5--5---3---7-----7----7----|
|-----------3-3-3----|------3-5-3---7-------7--7----|
|--------------------|--------4---------------------|
|--------------------|------------------------------|
|--------------------|------------------------------|


|-7-5----7--7-5------|---------0-x-0--1--0-x-0------|
|----7---7------7----|--3-5----1-x-1--1--0-x-0------|
|-----7--7-------7---|--5-7----2-x-2--0--1-x-1------|
|--------------------|---------0-x-0--0--2-x-2------|
|--------------------|---------3-x-3--0--2-x-2------|
|--------------------|---------x-x-x--0--x-x-x------|


|---------------0-1--|-2p0----0-------2-0-0---------|
|-1-4-3-1--3-1-3-----|-0-0------3-3-----0-0--3-1-0--|
|-0---0---3----------|-------4--0-0-4------------0--|
|--------------------|------------------------------|
|--------------------|------------------------------|
|--------------------|------------------------------|


|--------------------|-----------------------|
|--0--3/5---3/5------|-----------------------|
|-0---5/7---5/7------|-----------------------|
|--------------------|-----------------------|
|--------------------|-----------------------|
|--------------------|-----------------------|

===REPEAT, THEN====


|--------------------|---------9-------------|
|---7---7---7--------|--7---7----9-7------3-3|
|-9---9---9---9-7----|-9--9--9-------9-7--5-5|
|--------------------|-----------------------|
|--------------------|-----------------------|
|--------------------|-----------------------|


|--------------------|---------9-------------|
|---7---7---7--------|--7---7----9-7------3-3|
|-9---9---9---9-7----|-9--9--9-------9-7--5-5|
|--------------------|-----------------------|
|--------------------|-----------------------|
|--------------------|-----------------------|


|--------------------|---------9-------------|
|---7---7---7--------|--7---7----9-7------3-3|
|-9---9---9---9-7----|-9--9--9-------9-7--5-5|
|--------------------|-----------------------|
|--------------------|-----------------------|
|--------------------|-----------------------|


|-0-------------------|-----------------------|
|-5-------------------|-----------------------|
|-5-------------------|-----------------------|
|-5-------------------|-----------------------|
|-3-------------------|-----------------------|
|-0-------------------|-----------------------|
Tap to rate this tab
# A B C D E F G H I J K L M N O P Q R S T U V W X Y Z