Song name
# A B C D E F G H I J K L M N O P Q R S T U V W X Y Z

Bjork - Aurora tab

---work in progress---

-------------------------------------------------------------------------------
                               AURORA - Bjork
-------------------------------------------------------------------------------
Tabbed by: J. Garces

Capo 5

--- work in progress ---

e|-------------2-----2-----2--------------5------32-----220-02--23----------|
B|-----3---0---3----0--3-------1-------1----0------0--0----0----35----------|
G|---------2-------0-----0---0-2---2-2----02-------------------0------------|
D|---0---------4-------------------5----0---0---4------2------2-4-----------|
A|--2--------------3--------------------------------2-------2---------------|
E|-0-----------------------3-------------------------0-------0---0----------|
Tap to rate this tab
 
# A B C D E F G H I J K L M N O P Q R S T U V W X Y Z