Song name
# A B C D E F G H I J K L M N O P Q R S T U V W X Y Z

Black Bomb A - Braindead tab

http://www.youtube.com/watch?v=4qtszLVvAZU

------------------------------------------------------------------------

D|---------------------------------------------------------------|
A|---------------------------------------------------------------|
F|---------------------------------------------------------------|
C|--8---8---8---8---7---7---7---7---5---7---5--------------5---7-|      A
G|----------------------------------------------6------6---------|
C|---------------------------------------------------------------|

D|------------------------------------------------------------------|
A|------------------------------------------------------------------|
F|------------------------------------------------------------------|
C|----------8---------------7---------------4---------------0-------|   B
G|----------8---------------7---------------4---------------0-------|
C|--8---8---8---8-8-7---7---7---7-7-4---4---4---4-4-0---0---0---0-0-|

D|-----------------------------------------------------------------|
A|-----------------------------------------------------------------|
F|-----------------------------------------------------------------|
C|----------8---------------5---------------7---------------7------|    C
G|------8-------8-------5-------5-------7-------7-------7-------7--|
C|--8---------------5---------------7---------------7--------------|

D|--------------------------------------------------------------------|
A|--------------------------------------------------------------------|
F|--------------------------------------------------------------------|
C|----------8---------------7---------------4---------------0------0--| D
G|----------8---------------7---------------4---------------0------0--|
C|--8---8---8---8-8-7---7---7---7-7-4---4---4---4-4-0---0---0------0--|


COMPOSITION :

A x 4
B x 4
C x 4
D x 2
B x 4
C x 4
D x 4
Tap to rate this tab
# A B C D E F G H I J K L M N O P Q R S T U V W X Y Z