Song name
# A B C D E F G H I J K L M N O P Q R S T U V W X Y Z

Black Clint - Killing Time tab

                               KILLING TIME
                                 (hed)p.e.


from album: Broke

transcribed by live (hed) videos:Rock Am Ring 2001,Boardecross Festival 2001, 
Papa Roach tour 2001 (germany, holland)

Tabed by chizz

   Dj Produtcs sample                   (2x)    guitars fade in
B :-----------------------------------------|  |--<12~~~~----------|
F#:-----------------------------------------|  |-------------------|   
D :----------9----------------9-------------|  |-------------------|
A :-----------------------------------------|  |-------------------|
E :---7--7------77-----7--7-----7-----------|  |-------------------|
B :-----------------------------------------|  |----------x12\0----|
  

  
  Main Riff1  (westyle a chad)                           (2x)
B :----------------------------------------------------------------|
F#:----------------------------------------------------------------|
D :----------------------------------------------------------------|
A :----------------------------------------------------------------|
E :----------7-------10\9-99-9\8-88----------7-----10\9-99-9\8-88--|
B :---0--0-------00-------------------0--0------0------------------|
  
  Main Riff2  (westyle and chad)                                                 
B :-----------------------------------------------------------------------|
F#:-----------------------------------------------------------------------|
D :----------12\11--11-11--11\10--10-10---------12-11--11-11--11\10--10-10|
A :----------12\11--11-11--11\10--10-10---------12-11--11-11--11\10--10-10|
E :-----7----10\9---9--9---9 \8---8--8------7---10\9---9--9---9 \8---8--8-|
B :0-0----00----------------------------0-0---0---------------------------|
  
B :--------------------------------------------------------------------|
D :----------12\11--11-11--11\10--10-10--------------------------------|
A :----------12\11--11-11--11\10--10-10--------------------------------|
E :-----7----10\9---9--9---9 \8---8--8-------7-------------------------|
B :0-0----00----------------------------0--0----0----------------------|
  
  Verse:

  Hawk - bass link
  heavy distrorted bass with Q filter
G:------------------------------------------------------------|
D :-----------------------------------------------------------|
A :-----------------------------------------------------------|
E :-----/half bend-----------------/half bend-----------------|
B :--0-3----------0-0---------00--3-----------0---00-0--------|
  
 Chad continues 
 clean sound
B :-----------------------------0-------------------------------|
F#:---12----11------------10----8-------------------------------|
D :---12----11------------10----9-------------------------------|
A :--(12)--(11)----------(10)--(9)------------------------------|
E :-------------------------------------------------------------|
B :-------------------------------------------------------------|
  ( ) ghost note

  wesstyle - first verse with chad
  clean with some tremolo effect (on record barely heard)
B :------------------------------------------------------------|
F#:------------------------------------------------------------|
D :----------9~-----------------9~-----------------------------|
A :------------------------------------------------------------|
E :------------------------------------------------------------|
B :------------------------------------------------------------|
  
  wesstyle - second verse with chad 

B :-----------------/full bend-----------/full bend------------|
F#:---x8-x8--x8-x8-8-------x8-x8-x88-x8-8----------------------|
D :------------------------------------------------------------|
A :------------------------------------------------------------|
E :------------------------------------------------------------|
B :------------------------------------------------------------|
  
   
  Chorus:

   Wes and Chad together    "Just killing time ... "  
B :----------------------------------------------------------------|
F#:----------------------------------------------------------------|
D :------------4--4-4----------------------------------------------|
A :--4/5--5-5--5--5-5--5/6--6-6--6/7--7-7--------------------------|
E :--4/5--5-5--5--5-5--5/6--6-6--6/7--7-7--------------------------|
B :--2/3--3-3--3--3-3--3/4--4-4--4/5--5-5--------------------------|
  
  Bridge 
    "I keep my eyes on a stars... "
  Westyle                Chad
  crunch guitar          clean
B :---------------12~---|--------------0---------------------------|
F#:----------16---------|--------10----8---------------------------|
D :---------------------|--------10----9---------------------------|
A :-----14--------------|-------(10)--(9)--------------------------|
E :---------------------|------------------------------------------|
B :---------------------|------------------------------------------|
  

   Wah part befor last chorus
   Westyle and Chad together
   Distorted with Wah-Wah
B :----------------------------------------------------------------|
F#:----------------------------------------------------------------|
D :----------------------------------------------------------------|
A :----------------------------------------------------------------|
E :-------7-----------------------------7--------------------------|
B :-0-0------00------------------0-0--------0----------------------|
  
Tap to rate this tab
 
# A B C D E F G H I J K L M N O P Q R S T U V W X Y Z