Song name
# A B C D E F G H I J K L M N O P Q R S T U V W X Y Z

Black Crowes - Twice As Hard tab

Black Crowes - Twice as hard

this is a brief tab

open G tuning, thats where the other tabs were wrong

Intro riff 1

d|---------------------------------------------------------------------------|
B|---------------------------------------------------------------------------|
G|-0-0-~-~-~-0-5~-5\---------------------------------------------------------|
D|-0-0-~-~-~-0-5~-5\p0------repeat-4-times-----------------------------------|
G|-0-0-2/4\2-0-5~-5\p0-------------------------------------------------------|
D|---------------------------------------------------------------------------|

then intro riff 2

D|---------------------------------------------------------------------------|
B|-6~~--5------------------------0-------------------------------------------|
G|-5~~--5-5---3\2p0-3\2p0-3\2p0--0-------------------------------------------|
D|-7~~--5-5----------------------0-------------------------------------------|
G|-5~~--5-5----------------------0-------------------------------------------|
D|---------------------------------------------------------------------------|

Verse (perhaps with a slide? if ya wanna)

d|---------------------------------------------------------------------------|
B|--0-0~~-/-5555-------------------------------------------------------------|
G|--0-0~~-/-5555-------------------------------------------------------------|
D|--0-0~~-/-5555-------------------------------------------------------------|
G---0-0~~-/-5555-------------------------------------------------------------|
D----------------------------------------------------------------------------|

lil fill at the beggining of the verse 

d|------------|----------------|-----------|---------------------------------|
B|------------|----------------|-----------|---------------------------------|
G|-2b4-0---0--|-2b4r-2b4r-2b5r-|-2b4-0---0-|-2b4-0---0-----------------------|
D|-------2----|----------------|-------2---|-------2----2p0------------------|
G|------------|----------------|-----------|----------------4-0--------------|
D|------------|----------------|-----------|---------------------------------|

pre chorus "tell me im wro-o-ong" is basically intro riff 2 x2

chorus is pretty much the intro riff 1 except louder and more loosely played

solo is played in standard tuning around E pentatonic scale 

e|---------------------0-3---------------------------------------------------|
B|-----------------0-3-------------------------------------------------------|
G|-------------0-2-----------------------------------------------------------|
D|---------0-2---------------------------------------------------------------|
A|-----0-2-------------------------------------------------------------------|
E|-0-3-----------------------------------------------------------------------|

bend and slide on the G etc improvise! i know its crap but meh, theres not much 
of a solo to tab really



~ive often been called a minimalist~
Tap to rate this tab
# A B C D E F G H I J K L M N O P Q R S T U V W X Y Z