Song name
# A B C D E F G H I J K L M N O P Q R S T U V W X Y Z

Black Crowes - How Much For Your Wings tab

The Black Crowes
Song Title: How Much For Your Wings?
TBC Original? Yes
Written By: Chris and Rich Robinson
Recording Session: Three Snakes and One Charm
Record: Three Snakes and One Charm
Live Debut: 09/23/1996
Shows: 58 times played live
Notes: written on the Fourth of July, 1995

---------------------------
The above information was taken from www.crowesbase.com

Tuning: DGDGBD (Open G)

Intro:
"The reddest of lights shine upon you young man, God be with you"
D-------------|
B--x--x-------|
G--x--x--0-0--|
D--x--x--0-0--|
G--x--x-------|
D-------------|

Chorus:
D----------------------------------------|
B------0---------------------------------|
G------0-----------0--------------0------|
D-----------------(0)-------------0------|
G--------x-12----------7-7----7-7--------|
D---12-----10----7---7-5-5----5-5----5/--|


Verse:
D--------------------------------------------------------------|
B--2/3-3-3-3-x-x-x-x--2/3-3-3-3-x-x-x-x--2/3-3-3-3----0-----0--|
G--0-0-0-0-0-x-x-x-x--0-0-0-0-0-x-x-x-x--0-0-0-0-0------0---0--|
D--4/5-5-5-5-x-x-x-x--4/5-5-5-5-x-x-x-x--4/5-5-5-5--7-----5-5--|
G---------------------------------------------------7-----5-5--|
D--------------------------------------------------------------|

Solo Rhythm:
D--------------------------------------------------------|
B--------------------------------------------------------|
G--7--7-x-x-6--6-x-x-x-x-5--5-x-x-3-3-x-x-x-x-3-3-3-3-3--|
D--5--5-x-x-4--4-x-x-x-x-3--3-x-x-2-2-x-x-x-x-2-2-2-2-2--|
G--0--0-x-x-0--0-x-x-x-x-0--0-x-x-0-0-x-x-x-x-0-0-0-0-0--|
D--------------------------------------------------------|
Tap to rate this tab
# A B C D E F G H I J K L M N O P Q R S T U V W X Y Z