Song name
# A B C D E F G H I J K L M N O P Q R S T U V W X Y Z

Black Crowes - Hard To Handle drum




Hard to Handle
by the Black Crowes
Drummer: Steve Gorman


Intro:
C |--------------------------------x-----------------------------|
HH|x--x--x--x--x--x--x--x--x--x--x---x--x--x--x--x--x--x--x--x--x|
S |----o--o----o-------o--o----o-------o--o----o-------o--o----o-|
B |o---------o-----o---------o-----o---------o-----o---------o---|

C |-------------------|
HH|-------------------|
S |------o--o----oooo-|
B |--o---------o------|

Verse:
                    |---REPEAT-2X--|                 |---REPEAT-1x-|
C |-x--------------|----------------|-x-------------|---------------|
HH|---x--x--x--x--x|--x--x--x--x--x-|---x--x--x--x--|x--x--x--x--x--|
S |-----o--o----o--|-----o--o----o--|-----o--o----o-|------o--o----o|
B |-o---------o----|-o---------o----|-o---------o---|--o---------o--|

C |-----------------|
HH|-----------------|
S |-------o--oooooo-|
B |---o-------------|

Chorus:
C |x--------------------------------x|-------|-------x------------|
HH|--X--X--X--X--X--X--X--X--X--X----|-WAIT--|---------X--X--X--X-|
T1|----------------------------------|--4----|---o----------------|
S |----o-------o-------o-------o-oo--|SECONDS|-o---------o-------o|
B |o-------o-o-----o-------o-o------o|-------|-----o-o-------o----|

C |---x-------x-------x------------|
HH|-X---X--X----X--X---------------|
T1|---------------------------oooo-|
S |-------o-------o-------goo------|
B |---o-------o-------o------------|

Verse 2:
C |x--------------------------------------------------------------|
HH|--x--x--x--x--x--x--x--x--x--x--x--x--x--x--x--x--x--x--x--x--x|
S |----o--o----o-------o-------o-------o--o----o-------o-------o-o|
B |o---------o-----o-------o-o-----o---------o-----o-------o-o----|

C |---x-------------------------------x-----------------------x--|
HH|x----x--x--x--x--x--x--x--x--x--x-----x--x--x--x--x--x--x-----|
S |-------o--o----o-------o-------o-------o--o----o-------o-o----|
B |---o---------o-----o-------o-o-----o---------o-----o-------o--|

C |-------|
HH|-------|
S |oooooo-|
B |-------|

Chorus 2:
C |x-------------------------------x-|-------|------x-------------|
HH|--X--X--X--X--X--X--X--X--X-------|-WAIT--|--------X--X--X--X--|
T1|----------------------------------|---4---|--------------------|
S |----o-------o-------o-------ooo---|SECONDS|-oooo-----o-------o-|
B |o-------o-o-----o-------o-o-----o-|-------|------o-------o-o---|

C |--x---------------x-----------------x----x---x----------|
HH|----X--X--X--X--X---X--X--X--X--X-----------------------|
T1|---------------------------------------------------oooo-|
S |------o-------o-------o---o---ooooo----o---o---goo------|
B |--o-------o-o-----o-----o---o-------o----o---o----------|

Verse 3:
C |x-------------------------------x------------------------------|
HH|--x--x--x--x--x--x--x--x--x--x--x--x--x--x--x--x--x--x--x--x--x|
S |----o--o----o-------o-------o-------o--o----o-------o-------o-o|
B |o---------o-----o-------o-o-----o---------o-----o-------o-o----|

C |-x--------------------------------------------------------x--|
HH|---x--x--x--x--x--x--x--x--x------x--x--x--x--x--x--x--x-----|
S |-----o--o----o-------o-------o-oo-------o--o----o-------o----|
B |-o---------o-----o-------o-o--------o---------o-----o-----o--|

C |--------|
HH|--------|
S |goooooo-|
B |--------|

Chorus 3:
C |x---------------x----------------x-|-------|------x------------|
HH|--X--X--X--X--X---X--X--X--X-------|-WAIT--|--------X--X--X--X-|
T1|-----------------------------------|--4----|-------------------|
S |----o-------o-------o-------o-oo---|SECONDS|-oooo-----o-------o|
B |o-------o-o-----o-------o-o------o-|-------|------o-------o-o--|

C |---x-------------------------------------x----x---x----------|
HH|X----X--X--X--X--X--X--X--X--X-------------------------------|
T1|--------------------------------------------------------oooo-|
S |-------o-------o-------o-------o--oooooo----o---o---goo------|
B |---o-------o-o-----o-------o-------------o----o---o----------|

Solo:
C |x-------------------------------x------------------------------|
HH|--X--X--X--X--X--X--X--X--X--X----X--X--X--X--X--X--X--X--X--X-|
S |----o--o----o-------o--o----o-------o-------o-------o-------o-o|
B |o---------o-----o---------o-----o-------o-o-----o-------o-o----|

C |---x--------------------------------------------------------x-|
HH|X----X--X--X--X--X--X--X--X--X------X--X--X--X--X--X--X--X----|
S |-------o--o----o-------o-------o-oo-------o--o----o-------o---|
B |---o---------o-----o-------o-o--------o---------o-----o-----o-|

C |---------|
HH|---------|
S |-goooooo-|
B |---------|

Chorus 4:
C |x-----------------------------------x-|-------|-------x-------|
HH|--------------------------------------|-WAIT--|---------------|
T1|--------------------------------------|--4----|---------------|
S |----o-------o-------o-------ooo-ooo---|SECONDS|-oo-oo-----o---|
B |o-------o-o-----o-o-----o-----------o-|-------|-------o-------|

C |--------x-------------------------------------x----x---x-|
HH|---------------------------------------------------------|
T1|-----------------------------------------oooo------------|
S |----o-------o-------o-------o---o---oooo---------o---o---|
B |o-o-----o-------o-o-----o-----o---o-----------o----o---o-|

Solo 2/Outro:
C |x---------------x---------------x------------------------------|
HH|--X--X--X--X--X---X--X--X--X--X---X--X--X--X--X--X--X--X--X--X-|
T1|---------------------------------------------------------------|
S |----o--o----o-------o-------o-------o--o----o-------o-------o-o|
B |o---------o-----o-------o-o-----o---------o-----o-------o-o----|

C |-x-------------------------------x----------------------------|
HH|---X--X--X--X--X--X--X--X--X--X----X--X--X--X--X--X--X--X--X--|
T1|--------------------------------------------------------------|
S |-----o--o----o-------o-------o-------o--o----o-------o------o-|
B |-o---------o-----o-------o-o-----o---------o-----o-------o----|

C |--------x---------------x---------------x---------------------|
HH|----------X--X--X--X--X---X--X--X--X--X---X--X--X-------------|
T1|---------------------------------------------------------oooo-|
S |-oooooo-----o-------o-------o-------o-------o---o---oooo------|
B |--------o-------o-o-----o-------o-o-----o-----o---o-----------|

C |x----x---x-|
HH|-----------|
T1|-----------|
S |---o---o---|
B |o----o---o-|











	
	
	untitled
	
Tap to rate this tab
# A B C D E F G H I J K L M N O P Q R S T U V W X Y Z