Song name
# A B C D E F G H I J K L M N O P Q R S T U V W X Y Z

Black Crowes - By Your Side tab

-----------------------------------------------------------------
              The Black Crowes - By your side - Live
-----------------------------------------------------------------

This is the transcription of a performance at the show 
"Late Night with Conan O'Brien" from September 20th, 2001.
The video can be found on Youtube.

Albums: By Your Side (1999)
Tabbed by: Joel C.
Email: jcboxfr AT yahoo DOT fr

Tuning: Open G tuning: DGDGBd

G/D       D         Dsus(9)
DGDGBd    DGDGBd    DGDGBd
x7978x    x7777x    x7798x

C5        D5        B5        G
DGDGBd    DGDGBd    DGDGBd    DGDGBd
x5555x    x7777x    x4444x    x0000x

Convention used:   b   Bend
                   r   Release bend
                   h   Hammer-On
                   p   Pull-Off
                   s   Slide

Structure: P1 P2 P2
           P3 P3 P3 P3 P2
           P3 P3 P3 P4
           P5 P5 P5 P6 P1
           P3 P3 P3 P7
           P3 P3 P3 P4
           P5 P5 P5 P8
           P9 P9 P9 P9
           P5 P5 P5 P5 P5 P5 P5 P6

I used a sixteen notes subdivision on the first bars to show the rhythm.

P1
d|----------------------------------|----------------------------------|
B|----------------------------------|----------------------------------|
G|-9bxr9---7------------------------|-9bxr9---7-----------7~-----------|
D|-------------9-------7~------7-9--|-------------9---------------7-9--|
G|----------------------------------|----------------------------------|
D|----------------------------------|----------------------------------|
   * | | | * | | | * | | | * | | |    * | | | * | | | * | | | * | | |  

d|----------------------------------|----------------------------------|
B|---------10--10----------7h8-7----|----------------------------------|
G|-9b11-----------r9---7---7---7----|-----7-------7---------------7----|
D|-------------------------7h9-7----|-----7---9---7-----------7h9-7----|
G|----------------------------------|-----------------9---7------------|
D|----------------------------------|----------------------------------|
   * | | | * | | | * | | | * | | |    * | | | * | | | * | | | * | | |  

P2
d|----------------------------------|----------------------------------|
B|---------8---7--------------------|----------------------------------|
G|---------7---7---------------7----|-----7-------7---------------7----|
D|-7h9---------7-----------7h9------|-7h9-----7h9-7-----------7h9------|
G|---------------------7------------|---------------------7------------|
D|----------------------------------|----------------------------------|
   * | | | * | | | * | | | * | | |    * | | | * | | | * | | | * | | |  

d|------------------------------------|----------------------------------|
B|------------------------------------|---------8-------7-------8---7----|
G|-----7h9-7-------7h9p7---------7----|---------7-------7-------7---7----|
D|-7h9---------7h9------7--------7----|---------9-------7-------9---7----|
G|------------------------------------|-----7-------7-------7------------|
D|------------------------------------|----------------------------------|
   * | | | * | | | * |  | | * |  |  |   * | | | * | | | * | | | * | | |  

Variation on the next to last bar (like in the studio version):

d|-----------------------------------|
B|-----------------------------------|
G|-----7h9-7-------7h9-7-------------|
D|-7h9---------7h9---------7h9p7-----|
G|------------------------------7----|
D|-----------------------------------|
   * | | | * | | | * | | | * |  |  | 

P3
d|-----------------|-----------------|
B|-8-----7-------7-|-----------------|
G|-9-----7---7---7-|-----------------|
D|-7-----7---7-9-7-|-----9---7---9---|
G|-7-----7---7-7-7-|---7-7-7-7-7-7-7-|
D|-----------------|-----------------|
   *   *   *   *     *   *   *   *   

Variation P3
d|-----------------|-----------------|
B|-8---8-7-7-----7-|-----------------|
G|-9---9-7-7-----7-|-----------------|
D|-7---7-7-7---9-7-|-----9---7---9---|
G|-7---7-7-7-7-7-7-|---7-7-7-7-7-7-7-|
D|-----------------|-----------------|
   *   *   *   *     *   *   *   *   

P4
d|-----------------|-----------------|
B|-8-----7----h8-7-|---9-9-9-9-7-----|
G|-9-----7---7-7-7-|---8-8-8-8-7-----|
D|-7-----7---7h9-7-|-----7-7-7-7-----|
G|-7-----7---7-7-7-|-----------------|
D|-----------------|-----------------|
   *   *   *   *     *   *   *   *    

P5
d|-----------------|-----------------|
B|-----------------|-0---1-0-1-0-----|
G|---0-0-----0-0---|-0---0-0-0-0-----|
D|---------0---0---|-0---2-0-2-0-----|
G|-5-----4-----0---|-----------------|
D|-----------------|-----------------|
   *   *   *   *     *   *   *   *   

P6
d|-----------------|
B|-----------------|
G|---0-0-----0-7---|
D|---------0---7---|
G|-5-----4-----7---|
D|-----------------|
   *   *   *   *   

P7
d|-----------------|-----------------|
B|-8-----7---------|---9-9-9-9-7-----|
G|-9-----7---7---7-|---8-8-8-8-7---7-|
D|-7-----7---7h9-7-|-----7-7-7-7h9-7-|
G|-7-----7---7-7-7-|-------------7---|
D|-----------------|-----------------|
   *   *   *   *     *   *   *   *    

P8
d|-----------------|-----------------|
B|-----------------|-----------------|
G|---0-0-----0-7---|---7-7-7-7-7-7---|
D|---------0---7---|---7-7-7-7-7-7---|
G|-5-----4-----7---|---7-7-7-7-7-7---|
D|-----------------|-----------------|
   *   *   *   *     *   *   *   *   

P9
d|-----------------|-----------------|
B|--h-----s--------|-0---8---7---7---|
G|-5-7---4-5---0---|-0---7---7---7---|
D|-5-7---4-5---0---|-0---9---7---7---|
G|-5-7---4-5---0---|-0---7---7---7---|
D|-----------------|-----------------|
   *   *   *   *     *   *   *   *   

End


Lyrics:
  	
By Your Side	

When your lost
I am found
When you slip
I hold my ground
When I fall
Please take a bow
And when you're up
Just remember I am down

Some people looking for
Fortune and fame
They don't know
That it's all the same
It's like any other game
You know there's a loser
But it's alright.

When you feel your heart is breaking
And all your friends are faking
When it's giving and no taking
I will be by your side

I've been over the hill and back
Survived every kind of attack
It's been a few years at that
As a matter of fact

Good luck is just good luck
You don't go hungry if you got pot luck
I've been down
But never on my knees
We've seen the forest we've seen the trees

*************************************************************************
Tap to rate this tab
 
# A B C D E F G H I J K L M N O P Q R S T U V W X Y Z